» » »

Witch Bass tabs (ver.1)

Artists:  A B C D E F G H I J K L M N O P Q R S T U V W X Y Z # 

Witch Bass tabs (ver.1)

Maps And Atlases
Rating:
5/5 (2 votes)

Tabs too difficult? Try these video lessons and learn fast.
                WITCH
By MAPS & ATLASES

 "You were a witch..."
G|--------------------|
D|--------------------|
A|--------------------|
E|--------------------|

 "The weather..."     "The weather..."
G|-----6-9-11--9h11-9-|-----6-9-11--13p11-9-|
D|---7----------------|---7-----------------|
A|--------------------|---------------------|
E|-5------------------|-5-------------------|

 "Staked out..."      "The weather..."     "The weather..."
G|--------------------|-----6-9-11--9h11-9-|-----6-9-11--13p11-9-|
D|----7-7-------7-7---|---7----------------|---7-----------------|
A|--------------------|--------------------|---------------------| x2
E|-5-------5-5-------5|-5------------------|-5-------------------|

 "Please be... able..."
G|--------------------|-fill-that--|
D|--------------------|--I-can't---|
A|--------------------|-figure out-| x3
E|-5---55-55\--55-55--|----here----|

G|-------|
D|-7-777-|
A|-------| x16
E|-------|

G|-18--18--18--18--18--18--18--18--18--18--18--18---|---|
D|---19--19--19--19--19--19--19--19--19--19--19--19-|---|
A|--------------------------------------------------|---| x2
E|--------------------------------------------------|---|

G|-6-2~---------------------|
D|-------2-4-4--------------|
A|--------------2-4~--------|
E|--------------------5-2-2-|

 "Are we... as bandits..."      "Are we... as bandits..."
G|-18-14~--9-11~----------------|-18-14~--9-11~--------------------|
D|----------------9-11~---------|----------------9-11~-------------|
A|-----------------------12\9-9-|-----------------------12\9-9-9-9-|
E|------------------------------|----------------------------------|

G|-18-16-14-16-10-14~-16-|-14~--16-18~-16-18-16-14-|
D|-----------------------|-------------------------|
A|-----------------------|-------------------------| x2
E|-----------------------|-------------------------|

                              "You were a witch..."
G|-18-16-14-16-10-12-14-16-14-|--------------------|
D|----------------------------|--------------------|
A|----------------------------|--------------------|
E|----------------------------|--------------------|

 "The weather would celebrate us both as we ran..."
G|-18--18--18--18--18--18--18--18--18--18--18--18---|---|
D|---19--19--19--19--19--19--19--19--19--19--19--19-|---|
A|--------------------------------------------------|---| x2
E|--------------------------------------------------|---|

 "Tumbling... tumbling down the hill..."
G|-9----9----9----9----9----9----9----9----|
D|---11---11---11---11---11---11---11---11-|
A|-----------------------------------------| x2
E|-----------------------------------------|

G|-18--18--18--18--18--18--18--18--18--18--18--18---|---|
D|---19--19--19--19--19--19--19--19--19--19--19--19-|---|
A|--------------------------------------------------|---| x2
E|--------------------------------------------------|---|

G|-----------------------------------------|
D|-12-12-12-12-12-12-12-12-7-7-7-7-7-7-7-7-|
A|-----------------------------------------| x3
E|-----------------------------------------|

 "These are the tools to take..."
G|-7-7-7-7-------------------------|
D|---------9-9-9-9-7-7-7-7-7-7-7-7-|
A|---------------------------------| x4
E|---------------------------------|
            
Tabs too difficult? Try these video lessons and learn fast.




comments powered by Disqus
↑ Back to top | Tablatures and chords are parodies/interpretations of the original songs. You may use it for private study, scholarship, research or language learning purposes only