» » »

Rubber Lover Tabs (ver.1)

Artists:  A B C D E F G H I J K L M N O P Q R S T U V W X Y Z # 

Rubber Lover Tabs (ver.1)

Marmaduke Duke
Rating:
5/5 (4 votes)

Tabs too difficult? Try these video lessons and learn fast.
                -------------------------------------------------------------------------------
-------------------------------------------------------------------------------

Awesome new single, really easy to play aswell. Just listen to song for strummin 
easy enough to get

Tuning:EADGBe

Intro-0:00-0:12
e|---------------------------|
B|---------------------------|
G|--------------7-x-x--------|
D|-5-5--x-x-7-x-7-x-x-7-7----| x4
A|-5-5--x-x-7-x-5-x-x-7-7----|
E|-3-3--x-x-5-x-------5-5----|

Intro 2: 0:12-0:17
e|----------------------|
B|----------------------|
G|-7-7-7-7-7-7-7-9-7----| x2
D|----------------------|
A|----------------------|
E|----------------------|

Verse 1:0:17-0:23
No Guitar

Verse Part 2-0:23
e|------------|
B|------------|
G|-7-7-7------|
D|-7-7-7------|
A|-5-5-5------|
E|------------|

Verse part 3-0:24-0:29
No Guitar

Verse Part 4-0:29
e|--------------------------------------------------------------------------------|
B|--------------------------------------------------------------------------------|
G|-7-7-7--------------------------------------------------------------------------|
D|-7-7-7--------------------------------------------------------------------------|
A|-5-5-5--------------------------------------------------------------------------|
E|--------------------------------------------------------------------------------|

Pre Chorus-0:30-0:42
e|-------------------------------------------------------------|
B|-------------------------------------------------------------|
G|-----------------------------------7-7-7-------7-7---7-7-7---|
D|----------------------------5-5--7-7-7-7-5-5-7-7-7---7-7-7---|
A|---------5-5---------5-5----5-5--7-5-5-7-5-5-7-5-5---5-5-5---|
E|-3-3--5-----5--3-3-5-----5--3-3--5-----5-3-3-5---------------|
   x x  x  x x x x x x x x x

Chorus0:43-0:57
e|-----------------------------------|
B|-----------------------------------|
G|-------7-7---------7-7-------7-7-7-|
D|-5-5-7-7-7-7-5-5-7-7-7-7-x2--7-7-7-|
A|-5-5-7-5-5-7-5-5-7-5-5-7-----5-5-5-|
E|-3-3-5-----5-3-3-5-----5-----------|


Little Lead part verse 2-1:04-1:06
e|------------------------------|
B|----------7-10-7--------------|
G|------7-9--------9-7----------|
D|--7-9-----------------9-------|
A|------------------------------|
E|------------------------------|

Order:
Intro
Verse Part 1
Verse Part 2
Verse part 3
Verse part 4
Pre Chorus
Chorus
Verse Part 1
Verse Part 2
Lead Part
Verse part 4
Pre Chorus
Chorus x2
End

| /  slide up
| \  slide down
| h  hammer-on
| p  pull-off
| ~  vibrato
| +  harmonic
| x  Mute note
===============================================================================
            
Tabs too difficult? Try these video lessons and learn fast.




comments powered by Disqus
↑ Back to top | Tablatures and chords are parodies/interpretations of the original songs. You may use it for private study, scholarship, research or language learning purposes only