» » »

Must Get Out Bass tabs (ver.2)

Artists:  A B C D E F G H I J K L M N O P Q R S T U V W X Y Z # 

Must Get Out Bass tabs (ver.2)

Maroon 5
Rating:
0/5 (0 votes)
Tabs too difficult? Try these video lessons and learn fast.
                                             MUST GET OUT
                               MAROON 5
                         SONGS ABOUT JANE (2002)



Intro/Verse 1:

G                 D/F#            F               C/E   C
g----------------|---------------|---------------|---------------|
d----------------|---------------|---------------|---------------|   x5
a----------------|---------------|---------------|------3-3-3-3-3|
e-3-3-3-3-3-3-3-3|2-2-2-2-2-2-2-2|1-1-1-1-1-1-1-1|0-0-0----------|


Chorus 1:

G                 D/F#            Em7             C
g----------------|---------------|---------------|---------------|
d----------------|---------------|---------------|---------------|
a----------------|---------------|---------------|3-3-3-3-3-3-3-3|
e-3-3-3-3-3-3-3-3|2-2-2-2-2-2-2-2|0-0-0-0-0-0-0-0|---------------|

G                 D/F#            Am              C
g----------------|---------------|---------------|---------------|
d----------------|---------------|---------------|---------------|
a----------------|---------------|0-0-0-0-0-0-0-0|3-3-3-3-3-3-3-3|
e-3-3-3-3-3-3-3-3|2-2-2-2-2-2-2-2|---------------|---------------|


Verse 2:

G                 D/F#            F               C/E   C
g----------------|---------------|---------------|---------------|
d----------------|---------------|---------------|---------------|   x5
a----------------|---------------|---------------|------3-3-3-3-3|
e-3-3-3-3-3-3-3-3|2-2-2-2-2-2-2-2|1-1-1-1-1-1-1-1|0-0-0----------|


Chorus 2:

G                 D/F#            Em7             C
g----------------|---------------|---------------|---------------|
d----------------|---------------|---------------|---------------|
a----------------|---------------|---------------|3-3-3-3-3-3-3-3|
e-3-3-3-3-3-3-3-3|2-2-2-2-2-2-2-2|0-0-0-0-0-0-0-0|---------------|

G                 D/F#            Am              C
g----------------|---------------|---------------|---------------|
d----------------|---------------|---------------|---------------|
a----------------|---------------|0-0-0-0-0-0-0-0|3-3-3-3-3-3-3-3|
e-3-3-3-3-3-3-3-3|2-2-2-2-2-2-2-2|---------------|---------------|


Bridge:

D                 G               Am              C     C/B   Am
g----------------|---------------|---------------|---------------|
d----------------|---------------|---------------|---------------|
a-5-5-5-5-5-5-5-5|---------------|---------------|3-3-3-2-2-2-0-0|
e----------------|3-3-3-3-3-3-3-3|5-5-5-5-5-5-5-5|---------------|

D                 G               F              
g----------------|---------------|---------------|---------------|
d----------------|---------------|---------------|---------------|
a-5-5-5-5-5-5-5-5|---------------|8-8-8-8-8-8-8\-|---------------|
e----------------|3-3-3-3-3-3-3-3|---------------|1-1-1-1-1-1-1-1|


Break (Only guitar & vocals)

2nd part of Chorus 3:

G                 D/F#            Am              C
g----------------|---------------|---------------|---------------|
d----------------|---------------|---------------|---------------|
a----------------|---------------|0-0-0-0-0-0-0-0|3-3-3-3-3-3-3-3|
e-3-3-3-3-3-3-3-3|2-2-2-2-2-2-2-2|---------------|---------------|


Play the Chorus for Outro



That's it! Hope you'll enjoy! =)
            
Tabs too difficult? Try these video lessons and learn fast.


comments powered by Disqus
↑ Back to top | Tablatures and chords are parodies/interpretations of the original songs. You may use it for private study, scholarship, research or language learning purposes only