» » »

Never Gonna Leave This Bed Tabs (ver.1)

Artists:  A B C D E F G H I J K L M N O P Q R S T U V W X Y Z # 

Never Gonna Leave This Bed Tabs (ver.1)

Maroon 5
Rating:
0/5 (0 votes)

Tabs too difficult? Try these video lessons and learn fast.
                Standard Tuning EADGBE

This is how James Valentine play this song live.
To play the verse correctly I advice to watch a live video of this song ;)!

Finger picking

Intro/Verse (Clean)

e|------------------------------------------------------------|
B|---------7-7--5--5-5-5--------------------------------------|
G|-4--4--4-x-x--x--x-x-x--8--8--8-8--3-3--3-3-3---------------|
D|-6--6--6-6-6--6--6-6-6--9--9--9-9--4-4--4-4-4---------------|
A|-6--6--6----------------9--9--9-9--4-4--4-4-4---------------|
E|------------------------------------------------------------|

Chorus (Distortion)

e|------------------------------------------------------------|
B|------------------------------------------------------------|
G|------------------------------------------------------------|
D|-999999999999999999999999999999999999-----------------------|
A|-999999999999999999999999999999999999-----------------------|
E|-777777777777777777777777777777777777-----------------------|


e|------------------------------------------------------------|
B|------------------------------------------------------------|
G|------------------------------------------------------------|
D|-6666666-2~-----------9999999-4~----------------------------|
A|-6666666-2~---7-6-----9999999-4~----------------------------|
E|-4444444-0~-------9-7-7777777-2~----------------------------|

Verse (Clean)

e|------------------------------------------------------------|
B|---------7-7--5--5-5-5--------------------------------------|
G|-4--4--4-x-x--x--x-x-x--8--8--8-8--3-3--3-3-3---------------|
D|-6--6--6-6-6--6--6-6-6--9--9--9-9--4-4--4-4-4---------------|
A|-6--6--6----------------9--9--9-9--4-4--4-4-4---------------|
E|------------------------------------------------------------|

Chorus (Distortion)

e|------------------------------------------------------------|
B|------------------------------------------------------------|
G|------------------------------------------------------------|
D|-999999999999999999999999999999999999-----------------------|
A|-999999999999999999999999999999999999-----------------------|
E|-777777777777777777777777777777777777-----------------------|


e|------------------------------------------------------------|
B|------------------------------------------------------------|
G|------------------------------------------------------------|
D|-6666666-2~-----------9999999-4~----------------------------|
A|-6666666-2~---7-6-----9999999-4~----------------------------|
E|-4444444-0~-------9-7-7777777-2~----------------------------|

e|------------------------------------------------------------|
B|------------------------------------------------------------|
G|------------------------------------------------------------|
D|-999999999999999999888888888888888888-----------------------|
A|-999999999999999999999999999999999999-----------------------|
E|-777777777777777777666666666666666666-----------------------|


e|------------------------------------------------------------|
B|------------------------------------------------------------|
G|------------------------------------------------------------|
D|-6666666-2~-----------9999999-4~----------------------------|
A|-6666666-2~---7-6-----9999999-4~----------------------------|
E|-4444444-0~-------9-7-7777777-2~----------------------------|

Bidge

In the first part of the bridge there's not the guitar

In the 2nd part...

E|------------------------------------------------------------------|
B|------------------------------------------------------------------|
G|-----------------9-9-9-9-9-9-9-9----------------------------------|    * = Palm mute
D|-6-6-6-6-6-6-6-6-9-9-9-9-9-9-9-9-9-9-9-9-9-9-9-9-4-4-4-4-4-4-4-4--|
A|-6-6-6-6-6-6-6-6-7-7-7-7-7-7-7-7-9-9-9-9-9-9-9-9-4-4-4-4-4-4-4-4--|
E|-4-4-4-4-4-4-4-4-----------------7-7-7-7-7-7-7-7-2-2-2-2-2-2-2-2--|
   * * * * * * * * * * * * * * * * * * * * * * * * * * * * * * * *

e|------------------------------------------------------------|
B|------------------------------------------------------------|
G|------------------------------------------------------------|
D|-6-6-6-6-6-6-6-6-4-4-4-4-4-4-4-4----------------------------|
A|-6-6-6-6-6-6-6-6-4-4-4-4-4-4-4-4----------------------------|
E|-4-4-4-4-4-4-4-4-2-2-2-2-2-2-2-2----------------------------|
   * * * * * * * * * * * * * * * *

Chorus (Distortion)  Repeat til the end.

e|------------------------------------------------------------|
B|------------------------------------------------------------|
G|------------------------------------------------------------|
D|-999999999999999999888888888888888888-----------------------|
A|-999999999999999999999999999999999999-----------------------|
E|-777777777777777777666666666666666666-----------------------|


e|------------------------------------------------------------|
B|------------------------------------------------------------|
G|------------------------------------------------------------|
D|-6666666-2~-----------9999999-4~----------------------------|
A|-6666666-2~---7-6-----9999999-4~----------------------------|
E|-4444444-0~-------9-7-7777777-2~----------------------------|

e|------------------------------------------------------------|
B|------------------------------------------------------------|
G|------------------------------------------------------------|
D|-999999999999999999888888888888888888-----------------------|
A|-999999999999999999999999999999999999-----------------------|
E|-777777777777777777666666666666666666-----------------------|


e|------------------------------------------------------------|
B|------------------------------------------------------------|
G|------------------------------------------------------------|
D|-6666666-2~-----------9999999-4~----------------------------|
A|-6666666-2~---7-6-----9999999-4~----------------------------|
E|-4444444-0~-------9-7-7777777-2~----------------------------|
            
Tabs too difficult? Try these video lessons and learn fast.




comments powered by Disqus
↑ Back to top | Tablatures and chords are parodies/interpretations of the original songs. You may use it for private study, scholarship, research or language learning purposes only