» » »

Not Coming Home Bass tabs (ver.1)

Artists:  A B C D E F G H I J K L M N O P Q R S T U V W X Y Z # 

Not Coming Home Bass tabs (ver.1)

Maroon 5
Rating:
0/5 (0 votes)

Tabs too difficult? Try these video lessons and learn fast.
                This version is alot better then the one thats out there.
The Verse is just played the same, but at a different position on the neck, but the 
and Bridge are played differently and as supposed to.
Enjoy,
DutchBass :)


     {Not Coming Home - Maroon 5}
(Verse) 0:23
G|--------------------------------------|
D|--------------------------------------|
A|-------7--------7-9-7-----------------| x6
E|---8-9------8-9--------5---5-5-5-4----|

(Chorus) 1:12
G|--------------------------------------|
D|--------------------------------------|
A|------------3-3--4-4-(X4)-------------| x1
E|--5-5--7-7------------------9---8-----|

(Verse) 1:40 x5

(Chorus 2) 2:19
G|---------------------------------------------|
D|---------------------------------------------|
A|-----------------3-3-3~--4-4-4~-(X3)---------| x1
E|--5-5-5~--7-7-7~-----------------------9---8-|

(Verse) 2:47 x2

(Bridge) 3:03
G|--------------------------------------|
D|--------------------------------------|
A|-----------------3-3-3~--4-4-4~-(X2)--|
E|--5-5-5~--7-7-7~----------------------|

G|-------------------------------------------------|
D|-------------------------------------------------|
A|-------------------3--3--3---4-4-4~-(X3)---------|
E|--5--5--5---7-7-7~-------------------------9---8-|

(Ending) 3:47
G|----------------------------------|
D|----------------------------------|
A|------7------7--------------------|
E|--8-9----8-9-----9-8--------------|

(End)
G|-------|
D|-------|
A|-------|
E|---9---|

(Verse)x6
(Chorus)x1
(Verse)x5
(Chorus 2)x1
(Verse)x2
(Bridge)x1
(Ending)x2
(End)x1
            
Tabs too difficult? Try these video lessons and learn fast.


comments powered by Disqus
↑ Back to top | Tablatures and chords are parodies/interpretations of the original songs. You may use it for private study, scholarship, research or language learning purposes only