>
 >
Payphone 4

Payphone 4 Guitar Tabs

Maroon 5 - Payphone 4 chords, tabs, tablatures, lyrics

Guitar lessons | Add/correct | Request | Top 50 tabs Artists:  A B C D E F G H I J K L M N O P Q R S T U V W X Y Z 0-9

Payphone 4 Guitar Tabs – Maroon 5

CD, Sheet music, Poster

Do you like Payphone 4? Share with your friends now
Tabs

Voice melody tab

Israel, 2012


Verse:

         I know it's hard to remember           The people we used to be
e|---------------------|-------------------|
B|-----0-3-3-0---0-0---|-----0-3-3-0---0---|
G|---0---------0-------|---0---------0-----|
D|---------------------|-------------------|
A|---------------------|-------------------|
E|---------------------|-------------------|


     It's even harder to picture               That you're not here next to me
e|---------------------|-----------0-------|
B|-----0-3-3-0---0-0---|-----0-3-3-----0---|
G|---0---------0-------|---0---------0-----|
D|---------------------|-------------------|
A|---------------------|-------------------|
E|---------------------|-------------------|




    You say it's too late to make it              But is it too late to try
e|---------------------|-------------------|
B|-----0-3-3-0---0-0---|-----0-3-3-0---0---|
G|---0---------0-------|---0---------0-----|
D|---------------------|-------------------|
A|---------------------|-------------------|
E|---------------------|-------------------|


      And in our time that you wasted         All of our bridges burned down
e|---------------------|-------------------|
B|-----0-3-3-0---0-0---|---1-0---1-0---0---|
G|---0---------0-------|-------0-----0-----|
D|---------------------|-------------------|
A|---------------------|-------------------|
E|---------------------|-------------------|


Pre-chorus:


I've wasted my nights,      You turned out the lights,    Now I'm paralyzed,       
e|--------------|--------------|---------------|--------------| Still stuck in that time
B|--0--0-0---0--|--0--0-0---0--|--0--0-0-------|---------3-0--|
G|---------2----|---------2----|----------2-2--|--0--0-0------|
D|--------------|--------------|---------------|--------------|
A|--------------|--------------|---------------|--------------|
E|--------------|--------------|---------------|--------------|

    When we called it love,        but even the sun                 sets in paradise
e|--------------|--------------|---------------|
B|--0--0-0---0--|--0--0-0---0--|--0--0-0-------|
G|---------2----|---------2----|----------2-2--|
D|--------------|--------------|---------------|
A|--------------|--------------|---------------|
E|--------------|--------------|---------------|


Chorus:

I'm at a payphone                           trying to                         All of my change 
                                              call home                             I spent on you
e|---------5-3--|--3-2--------|--------------------|
B|-------3------|------3-1-1--|--1-0---1-0---------|
G|--4-5---------|-------------|------0-----2--0-2--|
D|--------------|-------------|--------------------|  X 2
A|--------------|-------------|--------------------|
E|--------------|-------------|--------------------|
        Where have the            Baby it's           where are the plans 
           times gone               all wrong             we made for two




             If happy ever after                           I would still be holding 
                           did exist                                    you like this
e|-----------------------|-----------------------|
B|----0-1-0-----------0--|----0-1-0---------3----|
G|--0-------2-2-0-0-2----|--0-------2-2-0-0---2--|
D|-----------------------|-----------------------|  X 2
A|-----------------------|-----------------------|
E|-----------------------|-----------------------|
          All those fairytales                         One more stupid love
     are full of sh*t                                   song I'll be sick





Comments


Popular Maroon 5 tabs & chords
Beautiful Goodbye Bass Tabs
Wont Go Home Without You 2 Bass Tabs
Makes Me Wonder Chords
Nothing Last Forever Chords
This Love Chords
This Love 5 Chords
Misery 2 Tabs
Better That We Break Ukulele
If I Fell Ukulele
Misery 2 Ukulele


Song lyrics



↑ Back to top | Tablatures and chords are parodies/interpretations of the original songs. You may use it for private study, scholarship, research or language learning purposes only
© 2014 AZChords.com Contact us | Privacy policy | DMCA | Add/correct tabs | Request tabs | Top 50 tabs