» » »

Wont Go Home Without You Tabs (ver.1)

Artists:  A B C D E F G H I J K L M N O P Q R S T U V W X Y Z # 

Wont Go Home Without You Tabs (ver.1)

Maroon 5
Rating:
0/5 (0 votes)

Tabs too difficult? Try these video lessons and learn fast.
                Won’t Go Home Without You

Verse One
        
E|--------------------------------------------|
B|--------------------------------------------|
G|--------------------------------------------|
D|------9--------11------------------9---9----|
A|------7--------9---------9---------7---6----|
E|-------------------------7------------------|

E|-------------------------------------------------|
B|-------------------------------------------------|
G|-------------------------------------------------|
D|------11-------11----------------------------9---|
A|------11-------9---------7---------9---------7---|
E|------9------------------5---------7-------------|

Pre-Chorus

E|----------------------------------------------------------|
B|----------------------------------------------------------|
G|----------------------------------------------------------|
D|--------9---------6---------------------------------------|
A|--------7---------4-----------8-------7------9---6x-------|
E|------------------------------6-------5------7------------|

Chorus

E|---------------------------------------------------------------------|
B|---------------------------------------------------------------------|
G|---------------------------------------------------------------------|
D|--------9-------11-------7--------9--------9—------------------------|
A|--------7-------9--------7--------9--------7—------------------------|
E|-------------------------5--------7----------------------------------|

Verse Two

E|---------------------------------------------------------------------|
B|---------------------------------------------------------------------|
G|---------------------------------------------------------------------|
D|--------11-------11-------------9----9---------------11--------------|
A|--------11-------9------9-------7----6-------11------9-------7-------|
E|--------9---------------7--------------------9---------------5-------|

E|-------------------|
B|-------------------|
G|-------------------|
D|---------------9---|
A|----9----------7---|
E|----7--------------|

Back To Pre-Chorus, Chorus 2x

Bridge

E|---------------------------------------------------------------------|
B|---------------------------------------------------------------------|
G|---------------------------------------------------------------------|
D|--------7-------------9-------------------7--------------------------|
A|--------5-----7-------7-------9-----------5-----7------7-------------|
E|--------------5---------------7-----------------5------9-------------|

Back to Chorus


Ending of LAST Chorus
E|---------------------------------------------------------------------|
B|---------------------------------------------------------------------|
G|---------------------------------------------------------------------|
D|-------11--------------------------9---------------------------------|
A|--------9--------------7-----------7---------------------------------|
E|-----------------------5---------------------------------------------|

first ever tab, so if you can't understand it, you won't get it. 
            
Tabs too difficult? Try these video lessons and learn fast.




comments powered by Disqus
↑ Back to top | Tablatures and chords are parodies/interpretations of the original songs. You may use it for private study, scholarship, research or language learning purposes only