» » »

Can't You See Tabs (ver.7)

Artists:  A B C D E F G H I J K L M N O P Q R S T U V W X Y Z # 

Can't You See Tabs (ver.7)

Marshall Tucker Band
Rating:
0/5 (0 votes)

Tabs too difficult? Try these video lessons and learn fast.
                Can't You See (Bassline)


Gtr I - Bass

 Intro
  Moderately Q=84
 4/4
  Gtr I
  Wx6
|--------|
|--------|
|--------|
|--------|


  W          H    Q  S S S S   E S S E S S E S S S S S S
|----------|-----------------|---------------------------|
|----------|-----------------|-0-x-0-0-x-0-0-x-0-0---0---|
|----------|-----------0-2-0-|---------------------0---0-|
|----------|-----------------|---------------------------|


  E S S E S S E S S E S S   E S S E S S E S S E S S   E S S E S S E S S E S S
|-------------------------|-------------------------|--------------------------|
|-------------------------|-5-x-5-5-x-5-5-x-5-5-x---|-0-x-0-0-x-0-0-x-0-0-x-0--|
|-3-x-3-3-x-3-3-x-3-3-x-3-|-----------------------3-|--------------------------|
|-------------------------|-------------------------|--------------------------|


  E S S E S S E S S E S S   E S S E S S E S S E S S   E S S E S S E S S E S S
|-------------------------|-------------------------|--------------------------|
|-0-x-0-0-x-0-0-x-0-0-x-0-|-------------------------|-5-x-5-5-x-5-5-x-5-5-x----|
|-------------------------|-3-x-3-3-x-3-3-x-3-3-x-3-|-----------------------3--|
|-------------------------|-------------------------|--------------------------|


  E S S E S S E S S E S S   E S S E S S E S S E S S   E S S E S S E S S E S S
|-------------------------|-------------------------|--------------------------|
|-0-x-0-0-x-0-0-x-0-0-x-0-|-0-x-0-0-x-0-0-x-0-0-x-0-|--------------------------|
|-------------------------|-------------------------|-3-x-3-3-x-3-3-x-3-3-x-3--|
|-------------------------|-------------------------|--------------------------|


  E S S E S S E S S E S S   E S S E S S E S S E S S
|-------------------------|-------------------------||
|-5-x-5-5-x-5-5-x-5-5-x---|-0-x-0-0-x-0-0-x-0-0-x-0-||
|-----------------------3-|-------------------------||
|-------------------------|-------------------------||


 1st Verse
  E S S E S S E S S S S S S
|---------------------------|
|-0-x-0-0-x-0-0-x-0-0---0---|
|---------------------0---0-|
|---------------------------|


  E S S E S S E S S E S S   E S S E S S E S S E S S   E S S E S S E S S E S S
|-------------------------|-------------------------|--------------------------|
|-------------------------|-5-x-5-5-x-5-5-x-5-5-x---|-0-x-0-0-x-0-0-x-0-0-x-0--|
|-3-x-3-3-x-3-3-x-3-3-x-3-|-----------------------3-|--------------------------|
|-------------------------|-------------------------|--------------------------|


  E S S E S S E S S S S S S
|---------------------------|
|-0-x-0-0-x-0-0-x-0-0---0---|
|---------------------0---0-|
|---------------------------|


  E S S E S S E S S E S S   E S S E S S E S S E S S
|-------------------------|-------------------------|
|-------------------------|-5-x-5-5-x-5-5-x-5-5-x---|
|-3-x-3-3-x-3-3-x-3-3-x-3-|-----------------------3-|
|-------------------------|-------------------------|


  E S S E S S E S S E S S
|-------------------------||
|-0-x-0-0-x-0-0-x-0-0-x-0-||
|-------------------------||
|-------------------------||


 1st Chorus
  E S S E S S E S S S S S S   E S S E S S E S S E S S
|---------------------------|-------------------------|
|-0-x-0-0-x-0-0-x-0-0---0---|-------------------------|
|---------------------0---0-|-3-x-3-3-x-3-3-x-3-3-x-3-|
|---------------------------|-------------------------|


  E S S E S S E S S E S S   E S S E S S E S S E S S
|-------------------------|-------------------------|
|-5-x-5-5-x-5-5-x-5-5-x---|-0-x-0-0-x-0-0-x-0-0-x---|
|-----------------------3-|-----------------------0-|
|-------------------------|-------------------------|


  E S S E S S E S S S S S S
|---------------------------|
|-0-x-0-0-x-0-0-x-0-0---0---|
|---------------------0---0-|
|---------------------------|


  E S S E S S E S S E S S   E S S E S S E S S E S S
|-------------------------|-------------------------|
|-------------------------|-5-x-5-5-x-5-5-x-5-5-x---|
|-3-x-3-3-x-3-3-x-3-3-x-3-|-----------------------3-|
|-------------------------|-------------------------|


  E S S E S S E S S E S S
|--------------------------||
|-0-x-0-0-x-0-0-x-0-0-x-0--||
|--------------------------||
|--------------------------||


 2nd Verse
  E S S E S S E S S S S S S   E S S E S S E S S E S S
|---------------------------|-------------------------|
|-0-x-0-0-x-0-0-x-0-0---0---|-------------------------|
|---------------------0---0-|-3-x-3-3-x-3-3-x-3-3-x-3-|
|---------------------------|-------------------------|


  E S S E S S E S S E S S   E S S E S S E S S E S S
|-------------------------|---------------------------|
|-5-x-5-5-x-5-5-x-5-5-x---|-0-x-0-0-x-0-0-x-0-0-x-----|
|-----------------------3-|-----------------------0---|
|-------------------------|---------------------------|


  E S S E S S E S S S S S S   E S S E S S E S S E S S
|---------------------------|-------------------------|
|-0-x-0-0-x-0-0-x-0-0---0---|-------------------------|
|---------------------0---0-|-3-x-3-3-x-3-3-x-3-3-x-3-|
|---------------------------|-------------------------|


  E S S E S S E S S E S S   E S S E S S E S S E S S
|-------------------------|---------------------------||
|-5-x-5-5-x-5-5-x-5-5-x---|-0-x-0-0-x-0-0-x-0-0-x-0---||
|-----------------------3-|---------------------------||
|-------------------------|---------------------------||


 2nd Chorus
  E S S E S S E S S S S S S
|---------------------------|
|-0-x-0-0-x-0-0-x-0-0---0---|
|---------------------0---0-|
|---------------------------|


  E S S E S S E S S E S S   E S S E S S E S S E S S
|-------------------------|-------------------------|
|-------------------------|-5-x-5-5-x-5-5-x-5-5-x---|
|-3-x-3-3-x-3-3-x-3-3-x-3-|-----------------------3-|
|-------------------------|-------------------------|


  E S S E S S E S S E S S
|-------------------------|
|-0-x-0-0-x-0-0-x-0-0-x---|
|-----------------------0-|
|-------------------------|


  E S S E S S E S S S S S S   E S S E S S E S S E S S
|---------------------------|-------------------------|
|-0-x-0-0-x-0-0-x-0-0---0---|-------------------------|
|---------------------0---0-|-3-x-3-3-x-3-3-x-3-3-x-3-|
|---------------------------|-------------------------|


  E S S E S S E S S E S S
|-------------------------|
|-5-x-5-5-x-5-5-x-5-5-x---|
|-----------------------3-|
|-------------------------|


                                  1st Guitar Solo
  E S S +E  S S S S S S S S S S    E. S E S S E. S S S E
|-------------------------------||------------7--7--------|
|-------------------------------||--------5-7------5-6-7--|
|-5-------------------------3-4-||-5--5-5-----------------|
|---0-2-(2)-3-3-3-4-x-4-5-5-----||------------------------|


  E. S E S S E. S S S E   E. S S S E +E  S S S S S S
|------------7--7-------|----------------------------|
|--------5S7------5-6-7-|-5--------5-(5)-----5-------|
|-3--3-3----------------|----0-3-5-------3-5---0-3-4-|
|-----------------------|----------------------------|


  E S S +E  S S S S S S S S S S
|--------------------------------|
|--------------------------------|
|-5---------------------0-0-3-4--|
|---0-2-(2)-3-3-3-4-x-4----------|


  E. S E S S E. S S S E   E. S E S S E. S S S E   E. S S S E +E  S S S S S S
|------------7--7-------|------------7--7-------|-----------------------------|
|--------5-7------5-6-7-|--------5S7------5-6-7-|-5--------5-(5)-----5--------|
|-5--5-5----------------|-3--3-3----------------|----0-3-5-------3-5---0-3-4--|
|-----------------------|-----------------------|-----------------------------|


                                  3rd Verse
  E S S S S S S S S S S S S S S    E S S E S S E S S S S S S
|-------------------------------||---------------------------|
|-------------------------------||---------------------------|
|-5-x-5-3-5-x-5-3-5-x-5-3-5-x-5-||-5-x-5
            
Tabs too difficult? Try these video lessons and learn fast.




comments powered by Disqus
↑ Back to top | Tablatures and chords are parodies/interpretations of the original songs. You may use it for private study, scholarship, research or language learning purposes only