» » »

Like A Rose Tabs (ver.1)

Artists:  A B C D E F G H I J K L M N O P Q R S T U V W X Y Z # 

Like A Rose Tabs (ver.1)

Meat Loaf
Rating:
5/5 (1 vote)

Tabs too difficult? Try these video lessons and learn fast.
                Ok this song is originally in Drop C, but I put it in drop D.. it just makes it a bit easier.

*Drop D*

Intro
                                                  D7
e|----------2--------------------------------0--|--2--|
b|-------------1-----1-----------1--------3-----|--1--|
g|-----1/2--------2-----------2--------4--------|--2--|
d|-------------------------3--------------------|--0--|
a|----------------------------------------------|--0--|
e|--0-------------------3-----------5-----------|--0--|

Verse

e|--------------------------------------|
b|--------------------------------------|
g|------------------5-5--5--5/7--7-7-5--|
d|--0-0---0-0-0---0-3-3--3--3/5--5-5-3--|
a|--0-0---0-0-0---0-3-3--3--3/5--5-5-3--|
e|--0-0---0-0-0---0-3-3--3--3/5--5-5-3--|

e|------------------|
b|------------------|
g|--3-------5-------|
d|--3-------5-------|
a|--1-------3-------|
e|------------------|

Interlude

e|--------------------|
b|--------------------|
g|--------------------|
d|--0-------3----5----|
a|--0-------3----5----|
e|--0-------3----5----|

Chorus

e|----------------------------------|---------|
b|----------------------------------|---------|
g|------------------5-5-------------|--3---5--|
d|--0-0--3/5-5-5-3--5-5--3/5-5-5-3--|--3---5--|
a|--0-0--3/5-5-5-3--3-3--3/5-5-5-3--|--1---3--|
e|--0-0--3/5-5-5-3-------3/5-5-5-3--|---------|

Bridge

e|------------------------|
b|------------------------|
g|------------------------|
d|--8--7--0--3---8--7--5--|
a|--8--7--0--3---8--7--5--|
e|--8--7--0--3---8--7--5--|


..and thats basically it, I'll leave the how many times thing to you guys. I'm just 
you the notes.
Btw, you won't be able to play along with the song if your in drop d, you'll have to do 
the drop c way..
            
Tabs too difficult? Try these video lessons and learn fast.




comments powered by Disqus
↑ Back to top | Tablatures and chords are parodies/interpretations of the original songs. You may use it for private study, scholarship, research or language learning purposes only