» » »

Come To The Sabbath Bass tabs (ver.1)

Artists:  A B C D E F G H I J K L M N O P Q R S T U V W X Y Z # 

Come To The Sabbath Bass tabs (ver.1)

Mercyful Fate
Rating:
0/5 (0 votes)

Tabs too difficult? Try these video lessons and learn fast.
                Mercyful Fate - Don't Break The Oath

Bass tab by Andre Couto (aka "Andre The Wizard (murder in the rue morgue)")


note: "*"s are used to represent the same note X times (listen to the song).
% = repeat previous bar

   intro                             fill-------| (not 100% sure)
G--------------------------------------------------------9---9---9---9--
D-----------------------------------------------------------------------
A--5-7------7-5------5-3------3-2---------------3-5-7------7---7---7----
E------------------------------------5-7--5-7-0-------------------------

G-------------5h7--------------------|-----------------|---|---|-----------
D---------5h7------------------------|-----------------|---|---|-----------
A--7-5-------------5-3------3-2------|-----------------|-%-|-%-|-----------
E------------------------------------|--0-0--0-0--0-0--|---|---|-0-0--0-0--

guitars do the riff twice then bass enters on 0:50

G---------|------------7---7---------------|---|
D---------|-------------------------3-2----|---|
A--3/11\--|--0--2-3--5---5---0-2-3------3--|-%-|
E---------|--------------------------------|---|

   0:59                                     1:13
G---------------------------|-------------|------------------------------
D---------------------------|-------------|-----------5-4----------3-2---
A---------3-2---------7-6---|-%-(3-times)-|-0--2-3--5-----5-0-2-3------3-
E--2-2-2-------2-2-2------7-|-------------|------------------------------

G------------7---7---------------
D-------------------------3-2----
A--0--2-3--5---5---0-2-3------3--
E--------------------------------

   1:20
G--------------------------------------------------------------||
D--------------------------------------------------------------||
A-----------3-33-2-2------2--3-2--------------------------3-2--||
E--5(hold)-----------3*-----------0*---3-0*-5-3-0*---3-0*------||

   1:50                           "Come to the Sabbath!"
G----------------------------------------------------------------------------|
D----------------------------------------------------------------------------|
A--7777-2-1-2-------6-5------2-1-2-3*-5*------2-1-2------6-5------2-1-2-3*-5-|
E--------------0000-----0000-------------0000-------0000-----0000------------|

back to main riff etc

   2:57 "Now here we come!"
G---------------------------------------------|---|
D---------------------------------4-3-2-------|---|
A-----------------2-3-4-----------------0-1-2-|-%-|
E--0h2*-0h2*-0h2*-------0h2*-0h2*-------------|---|

G-------------------------------------------|---|
D----------------------5--------------------|---| back to
A--0h2*-0h2*-0h2*-0h22----0h2*-0h2*-7-5-7---|-%-|  then
E-----------------------------------------5-|---|

   3:26
G---------------------------------------------4-3-2----------------------||
D---------------------------------4-3-2-------------0-1-2-4-3-2-0-2-0----||
A-----------------2-3-4-----------------0-1-2-------------------------4--||
E--0h2*-0h2*-0h2*-------0h2*-0h2*----------------------------------------||

   3:51
G-----------------------------------------------|---|------||
D---------12h14---12-13-14----------121314------|---|------||
A--0-------------------------0------------------|-%-|-0----||
E-----------------------------------------------|---|------||

   4:26
G--------------------------------------
D-------------------------------drum---
A-----------4320----------4320--fill---    all single numbers are
E--2-0012-2------2-0012-2------(rest)--    separate notes 
                                           like 4320 -> -4-3-2-0-
                               4:35
G--------------------------------------------------------------
D---------------------------------------------------/7-5-------
A-----------4320----------4320-202023-202020-202023-----765XX--
E--2-0012-2------2-0012-2--------------------------------------

back to 4:26 then

G-----------------------------------------
D-----------------------------------------
A-----------4320----------4320-5---888-5--
E--2-0012-2------2-0012-2-----------------
                                           fill
G-----------------------------------------------
D------------------------------------------234--
A-----------4320----------4320-5---888-5--------
E--2-0012-2------2-0012-2-----------------------

                                          "You are the one"
G---------------------------------------------------|
D---------------------------------------------------|
A-----------4320----------4320-5---888-5---5-4-3----|
E--2-0012-2------2-0012-2------------------------2--|

Done, the last bass tab of the masterpiece "Don't Break The Oath" by
MERCYFUL FATE. I'll probably tab "The Beginning" songs too. Until then...
            
Tabs too difficult? Try these video lessons and learn fast.




comments powered by Disqus
↑ Back to top | Tablatures and chords are parodies/interpretations of the original songs. You may use it for private study, scholarship, research or language learning purposes only