>
 >
Shadows

Shadows Bass Tabs

Mercyful Fate - Shadows chords, tabs, tablatures, lyrics

Guitar lessons | Add/correct | Request | Top 50 tabs Artists:  A B C D E F G H I J K L M N O P Q R S T U V W X Y Z 0-9

Shadows Bass Tabs – Mercyful Fate

CD, Sheet music, Poster

Do you like Shadows? Share with your friends now
Bass TabsTabsTabs v2
its a standard bass

E||------------------|------------------|------------------|------------------|
B||------------------|------------------|------------------|------------------|
G||------------------|------------------|------------------|------------------|
D||------------------|------------------|------------------|------------------|
A||------------------|------------------|------------------|------------------|
E||------------------|------------------|------------------|------------------|


                                                             
------------------|------------------|----------------------|
------------------|------------------|----------------------|
------------------|------------------|----------------------|
------------------|------------------|----------------------|
------------------|------------------|----------------------|
------------------|------------------|--0----0----0--3------|


                                                                     
----------------------|----------------------|----------------------|
----------------------|----------------------|----------------------|
----------------------|----------------------|----------------------|
----------------------|----------------------|----------------------|
----------------------|----------------------|----------------------|
--0----0----0--3------|--0----0----0--3------|--0----0----0--3------|


                                                                     
----------------------|----------------------|----------------------|
----------------------|----------------------|----------------------|
----------------------|----------------------|----------------------|
----------------------|----------------------|----------------------|
----------------------|----------------------|----------------------|
--0----0----0--3------|--0----0----0--3------|--0----0----0--3------|


                                                                     
----------------------|----------------------|----------------------|
----------------------|----------------------|----------------------|
----------------------|----------------------|----------------------|
----------------------|----------------------|----------------------|
----------------------|----------------------|----------------------|
--0----0----0--3------|--0----0----0--3------|--0----0----0--3------|


                                                                        
-----------------------|------------------------|----------------------|
-----------------------|------------------------|----------------------|
-----------------------|------------------------|----------------------|
-----------------------|------------------------|----------------------|
-----------------------|---------------------0--|----------------------|
--0----0----0----0--0--|--1----1----1---1-1-----|--0--0----0----3------|


                                                                     
---------------------|-----------------------|----------------------|
---------------------|-----------------------|----------------------|
---------------------|-----------------------|----------------------|
---------------------|-----------------------|----------------------|
---------------------|-----------------------|----------------------|
--0--0----0----------|--0----0----0----0--0--|--1----1----1----1----|


                                                                     
-----------------------|----------------------|---------------------|
-----------------------|----------------------|---------------------|
-----------------------|----------------------|---------------------|
-----------------------|----------------------|---------------------|
-----------------------|----------------------|--0--------0----2----|
--0--0--0--0----3------|--0--0--0--0----------|---------------------|


                                                                      
----------------------|---------------------|------------------------|
----------------------|---------------------|------------------------|
----------------------|--4------5------4----|--4------5--4--2--0-----|
-----------------5----|---------------------|---------------------2--|
--3--------3--5-------|---------------------|------------------------|
----------------------|---------------------|------------------------|


                                                                  
---------------------|-----------------------|-------------------|
---------------------|-----------------------|-------------------|
---------------------|--------------------2--|-------------------|
---------------------|-----------4--5--4-----|--4----------------|
--3----------5----3--|--2--------------------|-------------------|
---------------------|-----------------------|-------------------|


                                                                 
------------------|----------------------|----------------------|
------------------|----------------------|----------------------|
------------------|----------------------|----------------------|
------------------|----------------------|----------------------|
------------------|----------------------|----------------------|
------------------|--0----0----0--3------|--0----0----0--3------|


                                                                        
-----------------------|------------------------|----------------------|
-----------------------|------------------------|----------------------|
-----------------------|------------------------|----------------------|
-----------------------|------------------------|----------------------|
-----------------------|---------------------0--|----------------------|
--0----0----0----0--0--|--1----1----1---1-1-----|--0--0----0----3------|


                                                                     
---------------------|-----------------------|----------------------|
---------------------|-----------------------|----------------------|
---------------------|-----------------------|----------------------|
---------------------|-----------------------|----------------------|
---------------------|-----------------------|----------------------|
--0--0----0----------|--0----0----0----0--0--|--1----1----1----1----|


                                                                     
-----------------------|----------------------|---------------------|
-----------------------|----------------------|---------------------|
-----------------------|----------------------|---------------------|
-----------------------|----------------------|---------------------|
-----------------------|----------------------|--0--------0----2----|
--0--0--0--0----3------|--0--0--0--0----------|---------------------|


                                                                      
----------------------|---------------------|------------------------|
----------------------|---------------------|------------------------|
----------------------|--4------5------4----|--4------5--4--2--0-----|
-----------------5----|---------------------|---------------------2--|
--3--------3--5-------|---------------------|------------------------|
----------------------|---------------------|------------------------|


                                                                  
---------------------|-----------------------|-------------------|
---------------------|-----------------------|-------------------|
---------------------|--------------------2--|-------------------|
---------------------|-----------4--5--4-----|--4----------------|
--3----------5----3--|--2--------------------|-------------------|
---------------------|-----------------------|-------------------|


                                                                        
------------------|----------------------|-----------------------------|
------------------|----------------------|-----------------------------|
------------------|----------------------|-----------------------------|
------------------|----------------------|-----------------------------|
------------------|----------------------|----------------------5/7----|
------------------|----------------------|--0-0-0-0-0-0-0----0------0--|


                                                             
------------------------------|-----------------------------|
------------------------------|-----------------------------|
------------------------------|-----------------------------|
------------------------------|-----------------------------|
------------------------------|----------------------5/7----|
--0-0-0-0-0-0-1--1--0--1-3-1--|--0-0-0-0-0-0-0----0------0--|


                                                               
------------------------------|-------------------------------|
------------------------------|-------------------------------|
------------------------------|-------------------------------|
------------------------------|-------------------------------|
------------------------------|-----------------------0-2-0---|
--0-0-0-0-0-0-1--1--0--1-3-1--|--0-2-2-2-2-0-2----2-4-------4-|


                                                           
--------------------------|-------------------------------|
--------------------------|-------------------------------|
--------------------------|-------------------------------|
--------------------------|-------------------------------|
--------------------------|-----------------------0-2-0---|
--0-2-2-2-2-0-2----3------|--0-2-2-2-2-0-2----2-4-------4-|


                                                          
---------------------------|-----------------------------|
---------------------------|-----------------------------|
---------------------------|-----------------------------|
---------------------------|-----------------------------|
-----------------3----2----|----------------------5/7----|
--0-2-2-2-2-0-2------------|--0-0-0-0-0-0-0----0------0--|


                                                             
------------------------------|-----------------------------|
------------------------------|-----------------------------|
------------------------------|-----------------------------|
------------------------------|-----------------------------|
------------------------------|----------------------5/7----|
--0-0-0-0-0-0-1--1--0--1-3-1--|--0-0-0-0-0-0-0----0------0--|


                                                               
------------------------------|-------------------------------|
------------------------------|-------------------------------|
------------------------------|-------------------------------|
------------------------------|-------------------------------|
------------------------------|-----------------------0-2-0---|
--0-0-0-0-0-0-1--1--0--1-3-1--|--0-2-2-2-2-0-2----2-4-------4-|


                                                           
--------------------------|-------------------------------|
--------------------------|-------------------------------|
--------------------------|-------------------------------|
--------------------------|-------------------------------|
--------------------------|-----------------------0-2-0---|
--0-2-2-2-2-0-2----3------|--0-2-2-2-2-0-2----2-4-------4-|


                                                                    
---------------------------|-------------------|-------------------|
---------------------------|-------------------|-------------------|
---------------------------|-------------------|-------------------|
---------------------------|-------------------|-------------------|
-----------------3----2----|-------------------|-------------------|
--0-2-2-2-2-0-2------------|--0----------------|--0----------------|


                                                                     
----------------------|----------------------|----------------------|
----------------------|----------------------|----------------------|
----------------------|----------------------|----------------------|
----------------------|----------------------|----------------------|
----------------------|----------------------|----------------------|
--0----0----0--3------|--0----0----0--3------|--0----0----0--3------|


                                                                     
----------------------|----------------------|----------------------|
----------------------|----------------------|----------------------|
----------------------|----------------------|----------------------|
----------------------|----------------------|----------------------|
----------------------|----------------------|----------------------|
--0----0----0--3------|--0----0----0--3------|--0----0----0--3------|


                                                                     
----------------------|----------------------|----------------------|
----------------------|----------------------|----------------------|
----------------------|----------------------|----------------------|
----------------------|----------------------|----------------------|
----------------------|----------------------|----------------------|
--0----0----0--3------|--0----0----0--3------|--0----0----0--3------|


                                                                        
----------------------|-----------------------|------------------------|
----------------------|-----------------------|------------------------|
----------------------|-----------------------|------------------------|
----------------------|-----------------------|------------------------|
----------------------|-----------------------|---------------------0--|
--0----0----0--3------|--0----0----0----0--0--|--1----1----1---1-1-----|


                                                                     
----------------------|---------------------|-----------------------|
----------------------|---------------------|-----------------------|
----------------------|---------------------|-----------------------|
----------------------|---------------------|-----------------------|
----------------------|---------------------|-----------------------|
--0--0----0----3------|--0--0----0----------|--0----0----0----0--0--|


                                                                      
----------------------|-----------------------|----------------------|
----------------------|-----------------------|----------------------|
----------------------|-----------------------|----------------------|
----------------------|-----------------------|----------------------|
----------------------|-----------------------|----------------------|
--1----1----1----1----|--0--0--0--0----3------|--0--0--0--0----------|


                                                                   
---------------------|----------------------|---------------------|
---------------------|----------------------|---------------------|
---------------------|----------------------|--4------5------4----|
---------------------|-----------------5----|---------------------|
--0--------0----2----|--3--------3--5-------|---------------------|
---------------------|----------------------|---------------------|


                                                                       
------------------------|---------------------|-----------------------|
------------------------|---------------------|-----------------------|
--4------5--4--2--0-----|---------------------|--------------------2--|
---------------------2--|---------------------|-----------4--5--4-----|
------------------------|--3----------5----3--|--2--------------------|
------------------------|---------------------|-----------------------|


                                                              
-------------------|------------------|----------------------|
-------------------|------------------|----------------------|
-------------------|------------------|----------------------|
--4~---------------|------------------|----------------------|
-------------------|------------------|----------------------|
-------------------|------------------|--0----0----0--3------|


                                                                        
----------------------|-----------------------|------------------------|
----------------------|-----------------------|------------------------|
----------------------|-----------------------|------------------------|
----------------------|-----------------------|------------------------|
----------------------|-----------------------|---------------------0--|
--0----0----0--3------|--0----0----0----0--0--|--1----1----1---1-1-----|


                                                                     
----------------------|---------------------|-----------------------|
----------------------|---------------------|-----------------------|
----------------------|---------------------|-----------------------|
----------------------|---------------------|-----------------------|
----------------------|---------------------|-----------------------|
--0--0----0----3------|--0--0----0----------|--0----0----0----0--0--|


                                                                      
----------------------|-----------------------|----------------------|
----------------------|-----------------------|----------------------|
----------------------|-----------------------|----------------------|
----------------------|-----------------------|----------------------|
----------------------|-----------------------|----------------------|
--1----1----1----1----|--0--0--0--0----3------|--0--0--0--0----------|


                                                                   
---------------------|----------------------|---------------------|
---------------------|----------------------|---------------------|
---------------------|----------------------|--4------5------4----|
---------------------|-----------------5----|---------------------|
--0--------0----2----|--3--------3--5-------|---------------------|
---------------------|----------------------|---------------------|


                                                                       
------------------------|---------------------|-----------------------|
------------------------|---------------------|-----------------------|
--4------5--4--2--0-----|---------------------|--------------------2--|
---------------------2--|---------------------|-----------4--5--4-----|
------------------------|--3----------5----3--|--2--------------------|
------------------------|---------------------|-----------------------|


                                                              
-------------------|------------------|----------------------|
-------------------|------------------|----------------------|
-------------------|------------------|----------------------|
--4----------------|------------------|----------------------|
-------------------|------------------|----------------------|
-------------------|------------------|----------------------|


                                                                  
---------------------|---------------------|---------------------|
---------------------|---------------------|---------------------|
---------------------|---------------------|---------------------|
---------------------|---------------------|---------------------|
---------3------2----|----5------3----2----|---------3------2----|
--0------------------|---------------------|--0------------------|


                                                                 
--------------------|---------------------|---------------------|
--------------------|---------------------|---------------------|
--------------------|---------------------|---------------------|
--------------------|---------------------|---------------------|
----5------3--------|---------3------2----|----5------3----2----|
--------------------|--0------------------|---------------------|


                                                                      
---------------------|--------------------|--------------------------|
---------------------|--------------------|--------------------------|
---------------------|--------------------|--------------------------|
---------------------|--------------------|--------------------------|
---------3------2----|----5------3--------|--0--0--0--0--0--0--0--0--|
--0------------------|--------------------|--------------------------|


                                                                           
--------------------------|--------------------------|--------------------|
--------------------------|--------------------------|--------------------|
--------------------------|--------------------------|--------------------|
--------------------------|--------------------------|--------------------|
--2--2--2--2--2--2--2--2--|--3--3--3--3--3--3--3--3--|--2-----------------|
--------------------------|--------------------------|-----------3--------|


                                                                  
---------------------|---------------------|---------------------|
---------------------|---------------------|---------------------|
---------------------|---------------------|---------------------|
---------------------|---------------------|---------------------|
---------3------2----|----5------3----2----|---------3------2----|
--0------------------|---------------------|--0------------------|


                                                                 
--------------------|---------------------|---------------------|
--------------------|---------------------|---------------------|
--------------------|---------------------|---------------------|
--------------------|---------------------|---------------------|
----5------3--------|---------3------2----|----5------3----2----|
--------------------|--0------------------|---------------------|


                                                                      
---------------------|--------------------|--------------------------|
---------------------|--------------------|--------------------------|
---------------------|--------------------|--------------------------|
---------------------|--------------------|--------------------------|
---------3------2----|----5------3--------|--0--0--0--0--0--0--0--0--|
--0------------------|--------------------|--------------------------|


                                                                           
--------------------------|--------------------------|--------------------|
--------------------------|--------------------------|--------------------|
--------------------------|--------------------------|--------------------|
--------------------------|--------------------------|--------------------|
--2--2--2--2--2--2--2--2--|--3--3--3--3--3--3--3--3--|--2-----------------|
--------------------------|--------------------------|-----------3--------|


                                                             
-----------------------------|------------------------------|
-----------------------------|------------------------------|
-----------------------------|------------------------------|
-----------------------------|------------------------------|
----------------------5/7----|------------------------------|
--0-0-0-0-0-0-0----0------0--|--0-0-0-0-0-0-1--1--0--1-3-1--|


                                                             
-----------------------------|------------------------------|
-----------------------------|------------------------------|
-----------------------------|------------------------------|
-----------------------------|------------------------------|
----------------------5/7----|------------------------------|
--0-0-0-0-0-0-0----0------0--|--0-0-0-0-0-0-1--1--0--1-3-1--|


                                                           
-------------------------------|--------------------------|
-------------------------------|--------------------------|
-------------------------------|--------------------------|
-------------------------------|--------------------------|
-----------------------0-2-0---|--------------------------|
--0-2-2-2-2-0-2----2-4-------4-|--0-2-2-2-2-0-2----3------|


                                                            
-------------------------------|---------------------------|
-------------------------------|---------------------------|
-------------------------------|---------------------------|
-------------------------------|---------------------------|
-----------------------0-2-0---|-----------------3----2----|
--0-2-2-2-2-0-2----2-4-------4-|--0-2-2-2-2-0-2------------|


                                                                  
---------------------|---------------------|---------------------|
---------------------|---------------------|---------------------|
---------------------|---------------------|---------------------|
---------------------|---------------------|---------------------|
---------3------2----|----5------3----2----|---------3------2----|
--0------------------|---------------------|--0------------------|


                                                                 
--------------------|---------------------|---------------------|
--------------------|---------------------|---------------------|
--------------------|---------------------|---------------------|
--------------------|---------------------|---------------------|
----5------3--------|---------3------2----|----5------3----2----|
--------------------|--0------------------|---------------------|


                                                                      
---------------------|--------------------|--------------------------|
---------------------|--------------------|--------------------------|
---------------------|--------------------|--------------------------|
---------------------|--------------------|--------------------------|
---------3------2----|----5------3--------|--0--0--0--0--0--0--0--0--|
--0------------------|--------------------|--------------------------|


                                                                           
--------------------------|--------------------------|--------------------|
--------------------------|--------------------------|--------------------|
--------------------------|--------------------------|--------------------|
--------------------------|--------------------------|--------------------|
--2--2--2--2--2--2--2--2--|--3--3--3--3--3--3--3--3--|--2-----------------|
--------------------------|--------------------------|-----------3--------|


                                                                        
---------------------|---------------------|-------------------|------||
---------------------|---------------------|-------------------|------||
---------------------|---------------------|-------------------|------||
---------------------|---------------------|-------------------|------||
---------3------2----|----5------3----2----|-------------------|------||
--0------------------|---------------------|--0----------------|------||





Comments


Popular Mercyful Fate tabs & chords
Devil Eyes 2 Bass Tabs
The Oath 2 Bass Tabs
Angel Of Light Tabs
Curse Of The Pharaohs Tabs
Mirror Tabs
Return Of The Vampire 1 Tabs
Satan's Fall 1 Tabs
Sucking Your Blood Tabs
The Uninvited Guest Tabs
To One Far Away 1 Tabs


Song lyrics



↑ Back to top | Tablatures and chords are parodies/interpretations of the original songs. You may use it for private study, scholarship, research or language learning purposes only
© 2014 AZChords.com Contact us | Privacy policy | DMCA | Add/correct tabs | Request tabs | Top 50 tabs