>
 >
The Oath

The Oath Bass Tabs

Mercyful Fate - The Oath chords, tabs, tablatures, lyrics

Guitar lessons | Add/correct | Request | Top 50 tabs Artists:  A B C D E F G H I J K L M N O P Q R S T U V W X Y Z 0-9

The Oath Bass Tabs – Mercyful Fate

CD, Sheet music, Poster

Do you like The Oath? Share with your friends now
Bass TabsBass Tabs v2TabsTabs v2
BASS TAB OF MERCYFUL FATE - THE OATH  
 

TUNING (EADG)
 

 INTRO  1:59
G:-----------------------|
D:-----------------------|
A:--x5--5-5----x4--4-4---|
E:-----------------------|
 
RIFF 1 X 2    
G:-----------------------|-------------------------|
D:-----------------------|-------------------------|
A:-----------------0-----|-----------0h2--0--------|
E:0h2--2--2--0--2-----2--|0h2--2--2---------4--2--0|
 

G:-----------------------|-------------------------|
D:-----------------------|-------------------------|
A:-----------------0-----|--x5--5-5----x4--4-4-----|
E:0h2--2--2--0--2-----2--|-------------------------|
 

VERSE 1  2:12
G:-----------------------|-------------------------|
D:-----------------------|-------------------------|
A:-3---------------------|-3-----------3-----------|
E:---0--0--0--0--0--0--0-|----0--0--0-----0--0--0--|
                           
                          /************************  /***************************
                           1                          2
G:-----------------------|--------------------------|----------------------------|
D:-----------------------|-----------4-4-4-4-4-4-4-4|----------------2h3h4432----|
A:-----------------------|--------------------------|-----------2h3h4--------432-|
E:-2--2--2--2--2--2--2--2|-2--2--2--2---------------|-2--2--2--2-----------------|
 

RIFF 1 X 2
 

VERSE 2
G:-----------------------|-------------------------|
D:-----------------------|-------------------------|
A:-3---------------------|-3-----------3-----------|
E:---0--0--0--0--0--0--0-|----0--0--0-----0--0--0--|
 
                            
                          /************************
                           1
G:-----------------------|--------------------------|
D:-----------------------|-----------4-4-4-4-4-4-4-4|
A:-----------------------|--------------------------|
E:-2--2--2--2--2--2--2--2|-2--2--2--2---------------|
 
   
  /************************************************
   2
G:-----------------------|-------------------------|
D:-----------------------|-------------------------|
A:-----------------------|-2--3--3--2--3--2--------|
E:-2--2--2--2--2--2--2--2|-------------------------|
 
  2:48
G:-----------------------|-------------------------|
D:----------------7--(7)-|-------------------------|
A:----------7--6---------|-----------7--6----------|
E:-3--5--0---------------|-3--5--0---------8--(8)--|
 

G:-----------------------|-------------------------|
D:----------------7--(7)-|----7--5-----------------|
A:----------7--6---------|----------8--7--8--------|
E:-3--5--0---------------|-------------------------|
 
G:-----------------------|-------------------------|
D:----------------7--(7)-|-------------------------|
A:----------7--6---------|-----------7--6----------|
E:-3--5--0---------------|-3--5--0---------8--(8)--|
 

G:-----------------------|-------------------------|
D:----------------7--(7)-|----7--5-----------------|
A:----------7--6---------|----------8--7--8--------|
E:-3--5--0---------------|-------------------------|
 
    3:02
G:-----------------------|-------------------------|
D:-----------------------|-------------------------|
A:-2--3--3--2--3--2------|-------------------------|
E:-----------------------|-2--2--2--2--2--2--2--2--|
 
G:-----------------------|-------------------------|
D:-----------------------|-------------------------|
A:-2--3--3--2--3--2------|-------------------------|
E:-----------------------|-2--2--2-3--3--3-2--2----|
 
G:-----------------------|-------------------------|
D:-----------------------|-------------------------|
A:-2--3--3--2--3--2------|-------------------------|
E:-----------------------|-2--2--2--2--2--2--2--2--|
 
G:-----------------------|-------------------------|
D:-----------------------|-------------------------|
A:-2--3--3--2--3--2------|-------------------------|
E:-----------------------|-2--2--2-3--3--3-2--2----|
 

G:-----------------------|-------------------------|
D:-----------------------|-------------------------|
A:-2--2--2-3--3--3-2--2--|-7--7--7-8--8--8---------|
E:-----------------------|-------------------------|
  
  3:20
G:-----------------------|-------------------------|
D:-----------------------|-------------------------|
A:-----------------------|-------------------------|
E:----0-----0-----0------|----0-----0-----0--------|
 
  Ohoh Ohoh Ohohoh   
G:-----------------------|-------------------------|
D:-----------------------|-------------------------|
A:-0--0-----0-----0------|----0-----0-----0--------|
E:-----------------------|-------------------------|
 

G:-----------------------|-------------------------|
D:-----------------------|-------------------------|
A:-----------------------|-------------------------|
E:-0--0-----0-----0------|----0-----0-----0--------|
 
INTERLUDE   
G:-----------------------|------------------9------|
D:-7--10--7--10--9-------|-7--10--7--9--10---------|
A:------------------10---|-------------------------|
E:-----------------------|-------------------------|
                         
                          /************************ /***********************
                          1. 2. 3.                   4
G:-----------------------|-------------------------|-----------------------|
D:-7--10--7--10--9-------|-10--9------9--10--12----|-----------------------|
A:------------------10---|--------10---------------|-5---------------------|
E:-----------------------|-------------------------|----3--2--1--0--0--0---|
 
 
 
RIFF 2
G:-----------------------|-------------------------|
D:-----------------------|-------------------------|
A:-------7-8-7--------10-|-------7-8-7----5---3----|
E:-0--0---------0--0-----|-0--0--------------------|
 
                         /*************************
                          1
G:-----------------------|-------------------------|
D:-----------------------|-------------------------|
A:-------7-8-7--------10-|-7h8--7h8h7h8----5-------|
E:-0--0---------0--0-----|-------------------------|
 
 /*********************** /************************
   2                       3
G:-----------------------|-------------------------|
D:-----------------------|-------------------------|
A:-7/9--/12----5---------|-------7h8h7----5--------|
E:-----------------------|-0--0--------------------|
 
   To it's lawful           master                        
G:-----------------------|-------------------------|
D:-----------------------|-------------------------|
A:-2--2--2--2--2--2--2--2|----------------------0--|
E:-----------------------|-2--2--2--2--2--0--2-----|
 
G:-----------------------|-------------------------|
D:-----------------------|-2-4-4-4-4-4--2-4-4-4-4-4|
A:-2--2--2--2--2--2--2--2|-------------------------|
E:-----------------------|-------------------------|
 
G:-----------------------|-------------------------|-----------------------|
D:-----------------------|-------------------------|-----------------------|
A:-2--2--2--2--2--2--2--2|----------------------0--|-2--2--2--2--2--2--2--2|
E:-----------------------|-2--2--2--2--2--0--2-----|-----------------------|
 
RIFF 2
 
  By these name....        of Satan 
G:-----------------------|-------------------------|
D:-----------------------|-------------------------|
A:-2--2--2--2--2--2--2--2|----------------------0--|
E:-----------------------|-2--2--2--2--2--0--2-----|
 
G:-----------------------|-------------------------|
D:-----------------------|-2-4-4-4-4-4--2-4-4-4-4-4|
A:-2--2--2--2--2--2--2--2|-------------------------|
E:-----------------------|-------------------------|
 
G:-----------------------|-------------------------|-----------------------|
D:-----------------------|-------------------------|-----------------------|
A:-2--2--2--2--2--2--2--2|----------------------0--|-2--2--2--2--2--2--2--2|
E:-----------------------|-2--2--2--2--2--0--2-----|-----------------------|
 

 4:54
G:-----------------------|-------------------------|
D:-----------------------|-------------------------|
A:-----------------3-2-0-|------------3--5--7------|
E:-2--2-0-2--2-0-2-------|-2--2-0-2----------------|
 
G:-----------------------|-------------------------|
D:-----------------------|-------------------------|
A:-----------------3-2-0-|------------7--6--5------|
E:-2--2-0-2--2-0-2-------|-2--2-0-2----------------|
 
G:-----------------------|-------------------------|
D:-----------------------|-------------------------|
A:-----------------3-2-0-|------------3--5--7------|
E:-2--2-0-2--2-0-2-------|-2--2-0-2----------------|
 
G:-----------------------|-------------------------|
D:-----------------------|-------------------------|
A:-----------------3-2-0-|------------7--6--5--(5)-|
E:-2--2-0-2--2-0-2-------|-2--2-0-2----------------|
 
 
 
RIFF 3 X 2
G:-----------------------------------|-----------------------------------|
D:-----------------------------------|------------------------7--------9-|
A:-4-4-4-4-4-4-4---4-4-4-4-7--6--7--6|-4-4-4-4-4-4-4--------7-7------9-9-|
E:-----------------------------------|------------------0h5------0h7-----|
 

G:-----------------------------------|-----------------------------------|
D:-----------------------------------|-----------------------7---9--7----|
A:-4-4-4-4-4-4-4---4-4-4-4-7--6--7--6|-4-4-4-4-4-4-4-------7-7---------9-|
E:-----------------------------------|-------------------5---------------|
 

   5:38                   "BASS SOLO" 1
G:-----------------------|----6--7--7-----7--9--9--|
D:-----------------------|-4--4--5--5--6--6--7--7--|
A:-5--5--5--5--5--5--5---|-------------------------|
E:-----------------------|-------------------------|
                          "BASS SOLO" 2
G:-----------------------|-------------------------|
D:-----------------------|-7777-6666-5555--4--5--4-|
A:-5--5--5--5--5--5--5---|-------------------------|
E:-----------------------|-------------------------|
 

RIFF 3 X 2
 
  6:08
G:-----------------------|-------------------------|
D:-----------------------|-------------------------|
A:-9--9--9--10--9------9-|-------------------------|
E:-----------------12----|-------------------------|
 
G:-----------------------|-------------------------|
D:-----------------------|-------------------------|
A:-9--9--9--10--9------9-|--X5--5-5---X4--4-4------|
E:-----------------12----|-------------------------|
 
G:-----------------------|-------------------------|
D:-----------------------|-------------------------|
A:-9--9--9--10--9------9-|-------------------------|
E:-----------------12----|-------------------------|
 
G:-----------------------|-------------------------|
D:-----------------------|-------------------------|
A:-9--9--9--10--9------9-|--X5--5-5---X4--4-4------|
E:-----------------12----|-------------------------|
 
RIFF 4 X 2
G:-----------------------|-------------------------|
D:-----------------------|-----------------0-------|
A:-----------------0-----|0h2--2--2--0--2-----2----|
E:0h2--2--2--0--2-----2--|-------------------------|
 
G:-----------------------|-------------------------|
D:-----------------------|-------------------------|
A:-----------------0-----|--X5--5-5---X4--4-4------|
E:0h2--2--2--0--2-----2--|-------------------------|
 
VERSE 1 
 
RIFF 4 X 2
 
   6:52
G:-----------------------|-------------------------|
D:-----------------------|-------------------------|
A:-X9-9--X7-7--X5-5--X4-4|-9-----7-----5----4------|
E:-----------------------|-------------------------|
 
G:-----------------------|-------------------------|-----------------------|
D:-----------------------|-------------------------|-----------------------|
A:-9-----7-----5----4----|-9-----------7-----------|-5-----------4---------|
E:-----------------------|-------------------------|-----------------------|
 
 
 
THE FINAL
G:---------4--4--4--4----|-------------------------|----------5--5--5--5---|
D:------4----------------|-------5-----5-----5-----|-------5---------------|
A:-2---------------------|----------5-----5--------|--3--------------------|
E:-----------------------|--3----------------------|-----------------------|
 
  /********************** /************************ /**********************
   1. 3.                   2.                        4.
G:-----------7--5--------|-------------------------|-----------------------|
D:-----7--5--------7-----|-----7--5--7/12/---------|----7--5-----5----4-4-4|
A:--5--------------------|--5----------------------|-5--------7-----5------|
E:-----------------------|-------------------------|-----------------------|
 
I'm not sure for the final......improvise too!





Comments


Popular Mercyful Fate tabs & chords
Come To The Sabbath Bass Tabs
Desecration Of Souls 1 Bass Tabs
A Gruesome Time Tabs
Buried Alive 1 Tabs
Ghost Of Change Tabs
Is That You, Melissa 1 Tabs
The Oath 1 Tabs
The Old Oak Tabs
Torture Tabs
Under The Spell Tabs


Song lyrics



↑ Back to top | Tablatures and chords are parodies/interpretations of the original songs. You may use it for private study, scholarship, research or language learning purposes only
© 2014 AZChords.com Contact us | Privacy policy | DMCA | Add/correct tabs | Request tabs | Top 50 tabs