>
 >
The Old Oak

The Old Oak Bass Tabs

Mercyful Fate - The Old Oak chords, tabs, tablatures, lyrics

Guitar lessons | Add/correct | Request | Top 50 tabs Artists:  A B C D E F G H I J K L M N O P Q R S T U V W X Y Z 0-9

The Old Oak Bass Tabs – Mercyful Fate

CD, Sheet music, Poster

Do you like The Old Oak? Share with your friends now
Bass TabsTabs
tune down

E||------------------|------------------|------------------|------------------|
B||------------------|------------------|------------------|------------------|
G||------------------|------------------|------------------|------------------|
D||------------------|------------------|------------------|------------------|
A||------------------|------------------|------------------|------------------|
E||------------------|------------------|------------------|------------------|


                                                                                
----------------------|------------------|------------------|------------------|
----------------------|------------------|------------------|------------------|
----------------------|------------------|------------------|------------------|
--------------1--0----|------------------|------------------|------------------|
-----------3----------|------------------|------------------|------------------|
--------5-------------|------------------|------------------|------------------|


                                                                        
-----------------|--------------------------|--------------------------|
-----------------|--------------------------|--------------------------|
-----------------|--------------------------|--------------------------|
-----------------|--------------------------|--------------------------|
--------0--3--6--|--5--5--5--5--5--5--5--5--|--5--5--5--5--5--0--3--5--|
-----------------|--------------------------|--------------------------|


                                                      
--------------------------|--------------------------|
--------------------------|--------------------------|
--------------------------|--------------------------|
--------------------------|--------------------------|
--8--6--6--6--6--6--6--6--|--6--6--6--6--6--0--3--5--|
--------------------------|--------------------------|


                                                      
--------------------------|--------------------------|
--------------------------|--------------------------|
--------------------------|--------------------------|
--------------------------|--------------------------|
--6--5--5--5--5--5--5--5--|--5--5--5--5--5--0--3--5--|
--------------------------|--------------------------|


                                                                          
--------------------------|-------------------|--------------------------|
--------------------------|-------------------|--------------------------|
--------------------------|-------------------|--------------------------|
--------------------------|-------------------|--------------------------|
--8--6--6--6--6--6--6--6--|--6----------------|--5--5--5--5--5--5--5--5--|
--------------------------|-------------------|--------------------------|


                                                      
--------------------------|--------------------------|
--------------------------|--------------------------|
--------------------------|--------------------------|
--------------------------|--------------------------|
--5--5--5--5--5--0--3--5--|--8--6--6--6--6--6--6--6--|
--------------------------|--------------------------|


                                                      
--------------------------|--------------------------|
--------------------------|--------------------------|
--------------------------|--------------------------|
--------------------------|--------------------------|
--6--6--6--6--6--0--3--5--|--6--5--5--5--5--5--5--5--|
--------------------------|--------------------------|


                                                      
--------------------------|--------------------------|
--------------------------|--------------------------|
--------------------------|--------------------------|
--------------------------|--------------------------|
--5--5--5--5--5--0--3--5--|--8--6--6--6--6--6--6--6--|
--------------------------|--------------------------|


                                                                             
-----------------------------|--------------------|-------------------------|
-----------------------------|--------------------|-------------------------|
-----------------------------|--------------------|-------------------------|
-----------------------------|--------------------|-------------------------|
--6--6--6--6--6----5---------|--------------------|----------6----5---------|
------------------------6----|--5--------6--------|--------------------6----|


                                                                               
--------------------|------------------|--------------------------------------|
--------------------|------------------|--------------------------------------|
--------------------|------------------|--------------------------------------|
--------------------|------------------|--------------------------------------|
--------------------|------------------|--------------------------------------|
--5--------8--------|------------------|--0--0--0--0--0--0--0--0--0--0--0--0--|


                                                                           
-----------------------------------|--------------------------------------|
-----------------------------------|--------------------------------------|
-----------------------------------|--------------------------------------|
-----------------------------------|--------------------------------------|
-----------------------------------|--------------------------------------|
--0--0--0--0--0--0--3----5----6----|--0--0--0--0--0--0--0--0--0--0--0--0--|


                                                                           
-----------------------------------|--------------------------------------|
-----------------------------------|--------------------------------------|
-----------------------------------|--------------------------------------|
-----------------------------------|--------------------------------------|
-----------------------------------|--------------------------------------|
--0--0--0--0--0--0--3----5----6----|--0--0--0--0--0--0--0--0--0--0--0--0--|


                                                                           
-----------------------------------|--------------------------------------|
-----------------------------------|--------------------------------------|
-----------------------------------|--------------------------------------|
-----------------------------------|--------------------------------------|
-----------------------------------|--------------------------------------|
--0--0--0--0--0--0--3----5----6----|--0--0--0--0--0--0--0--0--0--0--0--0--|


                                                                     
-----------------------------------|--------------------------------|
-----------------------------------|--------------------------------|
-----------------------------------|--------------------------------|
-----------------------------------|--------------------------------|
-----------------------------------|--3--2-----------5--3-----------|
--0--0--0--0--0--0--3----5----6----|--------0--0--0--------0--0--0--|


                                                                     
--------------------------------|-----------------------------------|
--------------------------------|-----------------------------------|
--------------------------------|-----------------------------------|
--------------------------------|-----------------------------------|
--7--5-----------8--7-----------|--5--7-----------------------------|
--------0--0--0--------0--0--0--|--------0--0--0--0--0--0--0--0--0--|


                                                               
-----------------------------|--------------------------------|
-----------------------------|--------------------------------|
-----------------------------|--------------------------------|
-----------------------------|--------------------------------|
--5--7-----------7h5----8----|--3--2-----------5--3-----------|
--------0--0--0------0-------|--------0--0--0--------0--0--0--|


                                                                     
--------------------------------|-----------------------------------|
--------------------------------|-----------------------------------|
--------------------------------|-----------------------------------|
--------------------------------|-----------------------------------|
--7--5-----------8--7-----------|--5--7-----------------------------|
--------0--0--0--------0--0--0--|--------0--0--0--0--0--0--0--0--0--|


                                                                     
-----------------------------|--------------------------------------|
-----------------------------|--------------------------------------|
-----------------------------|--------------------------------------|
-----------------------------|--------------------------------------|
--5--7-----------7h5----8----|--------------------------------------|
--------0--0--0------0-------|--0--0--0--0--0--0--0--0--0--0--0--0--|


                                                                           
-----------------------------------|--------------------------------------|
-----------------------------------|--------------------------------------|
-----------------------------------|--------------------------------------|
-----------------------------------|--------------------------------------|
-----------------------------------|--------------------------------------|
--0--0--0--0--0--0--3----5----6----|--0--0--0--0--0--0--0--0--0--0--0--0--|


                                                                           
-----------------------------------|--------------------------------------|
-----------------------------------|--------------------------------------|
-----------------------------------|--------------------------------------|
-----------------------------------|--------------------------------------|
-----------------------------------|--------------------------------------|
--0--0--0--0--0--0--3----5----6----|--0--0--0--0--0--0--0--0--0--0--0--0--|


                                                                           
-----------------------------------|--------------------------------------|
-----------------------------------|--------------------------------------|
-----------------------------------|--------------------------------------|
-----------------------------------|--------------------------------------|
-----------------------------------|--------------------------------------|
--0--0--0--0--0--0--3----5----6----|--0--0--0--0--0--0--0--0--0--0--0--0--|


                                                                  
-----------------------------------|-----------------------------|
-----------------------------------|-----------------------------|
-----------------------------------|-----------------------------|
-----------------------------------|-----------------------------|
-----------------------------------|-----------------------2--0--|
--0--0--0--0--0--0--3----5----6----|--3--2--2--2--2--2--2--------|


                                                            
-----------------------------|-----------------------------|
-----------------------------|-----------------------------|
-----------------------------|-----------------------------|
-----------------------------|-----------------------------|
--0--0--0--0--0--0--0--------|-----------------------2--0--|
-----------------------3--2--|--3--2--2--2--2--2--2--------|


                                                            
-----------------------------|-----------------------------|
-----------------------------|-----------------------------|
-----------------------------|-----------------------------|
-----------------------------|-----------------------------|
--0--0--0--0--0--0--0--------|-----------------------2--0--|
-----------------------3--2--|--3--2--2--2--2--2--2--------|


                                                            
-----------------------------|-----------------------------|
-----------------------------|-----------------------------|
-----------------------------|-----------------------------|
-----------------------------|-----------------------------|
--0--0--0--0--0--0--0--------|-----------------------2--0--|
-----------------------3--2--|--3--2--2--2--2--2--2--------|


                                                                  
--------------------------------|--------------------------------|
--------------------------------|--------------------------------|
--------------------------------|--------------------------------|
--------------------------------|--------------------------------|
--0--0--0--0--0--0--0--0--0--0--|--0--0-----------2--2-----------|
--------------------------------|--------0--0--0--------0--0--0--|


                                                                  
--------------------------------|--------------------------------|
--------------------------------|--------------------------------|
--------------------------------|--------------------------------|
--------------------------------|--------------------------------|
--3--3-----------3--3-----------|--0--0-----------2--2-----------|
--------0--0--0--------0--0--0--|--------0--0--0--------0--0--0--|


                                                               
--------------------------------|-----------------------------|
--------------------------------|-----------------------------|
--------------------------------|-----------------------------|
--------------------------------|-----------------------------|
--3--3-----------3--3-----------|-----------------------2--0--|
--------0--0--0--------0--0--0--|--3--2--2--2--2--2--2--------|


                                                            
-----------------------------|-----------------------------|
-----------------------------|-----------------------------|
-----------------------------|-----------------------------|
-----------------------------|-----------------------------|
--0--0--0--0--0--0--0--------|-----------------------2--0--|
-----------------------3--2--|--3--2--2--2--2--2--2--------|


                                                            
-----------------------------|-----------------------------|
-----------------------------|-----------------------------|
-----------------------------|-----------------------------|
-----------------------------|-----------------------------|
--0--0--0--0--0--0--0--------|-----------------------2--0--|
-----------------------3--2--|--3--2--2--2--2--2--2--------|


                                                            
-----------------------------|-----------------------------|
-----------------------------|-----------------------------|
-----------------------------|-----------------------------|
-----------------------------|-----------------------------|
--0--0--0--0--0--0--0--------|-----------------------2--0--|
-----------------------3--2--|--3--2--2--2--2--2--2--------|


                                                                  
--------------------------------|--------------------------------|
--------------------------------|--------------------------------|
--------------------------------|--------------------------------|
--------------------------------|--------------------------------|
--0--0--0--0--0--0--0--0--0--0--|--0--0-----------2--2-----------|
--------------------------------|--------0--0--0--------0--0--0--|


                                                                  
--------------------------------|--------------------------------|
--------------------------------|--------------------------------|
--------------------------------|--------------------------------|
--------------------------------|--------------------------------|
--3--3-----------3--3-----------|--0--0-----------2--2-----------|
--------0--0--0--------0--0--0--|--------0--0--0--------0--0--0--|


                                                                        
--------------------------------|--------------------------------------|
--------------------------------|--------------------------------------|
--------------------------------|--------------------------------------|
--------------------------------|--------------------------------------|
--3--3-----------3--3-----------|--------------------------------------|
--------0--0--0--------0--0--0--|--0--0--0--0--0--0--0--0--0--0--0--0--|


                                                                           
-----------------------------------|--------------------------------------|
-----------------------------------|--------------------------------------|
-----------------------------------|--------------------------------------|
-----------------------------------|--------------------------------------|
-----------------------------------|--------------------------------------|
--0--0--0--0--0--0--3----5----6----|--0--0--0--0--0--0--0--0--0--0--0--0--|


                                                                           
-----------------------------------|--------------------------------------|
-----------------------------------|--------------------------------------|
-----------------------------------|--------------------------------------|
-----------------------------------|--------------------------------------|
-----------------------------------|--------------------------------------|
--0--0--0--0--0--0--3----5----6----|--0--0--0--0--0--0--0--0--0--0--0--0--|


                                                                           
-----------------------------------|--------------------------------------|
-----------------------------------|--------------------------------------|
-----------------------------------|--------------------------------------|
-----------------------------------|--------------------------------------|
-----------------------------------|--------------------------------------|
--0--0--0--0--0--0--3----5----6----|--0--0--0--0--0--0--0--0--0--0--0--0--|


                                                                  
-----------------------------------|-----------------------------|
-----------------------------------|-----------------------------|
-----------------------------------|-----------------------------|
-----------------------------------|-----------------------------|
-----------------------------------|-----------------------2--0--|
--0--0--0--0--0--0--3----5----6----|--3--2--2--2--2--2--2--------|


                                                            
-----------------------------|-----------------------------|
-----------------------------|-----------------------------|
-----------------------------|-----------------------------|
-----------------------------|-----------------------------|
--0--0--0--0--0--0--0--------|-----------------------2--0--|
-----------------------3--2--|--3--2--2--2--2--2--2--------|


                                                            
-----------------------------|-----------------------------|
-----------------------------|-----------------------------|
-----------------------------|-----------------------------|
-----------------------------|-----------------------------|
--0--0--0--0--0--0--0--------|-----------------------2--0--|
-----------------------3--2--|--3--2--2--2--2--2--2--------|


                                                            
-----------------------------|-----------------------------|
-----------------------------|-----------------------------|
-----------------------------|-----------------------------|
-----------------------------|-----------------------------|
--0--0--0--0--0--0--0--------|-----------------------2--0--|
-----------------------3--2--|--3--2--2--2--2--2--2--------|


                                              
--------------------------------|------------|
--------------------------------|------------|
--------------------------------|------------|
--------------------------------|------------|
--0--0--0--0--0--0--0--0--0--0--|------------|
--------------------------------|--5----6----|


                                             
--------------------------------------------|
--------------------------------------------|
--------------------------------------------|
-----------------------------------------5--|
--2--2-2-2-2-2--2-2-2-2-2--2-2-2-2-2--3-----|
--------------------------------------------|


                                             
--------------------------------------------|
--------------------------------------------|
--------------------------------------------|
--4--4-4-4-4-4--4-4-4-4-4--4-4-4-4-4--5-----|
-----------------------------------------3--|
--------------------------------------------|


                                             
--------------------------------------------|
--------------------------------------------|
--------------------------------------------|
-----------------------------------------5--|
--2--2-2-2-2-2--2-2-2-2-2--2-2-2-2-2--3-----|
--------------------------------------------|


                                             
--------------------------------------------|
--------------------------------------------|
--------------------------------------------|
--4--4-4-4-4-4--4-4-4-4-4--4-4-4-4-4--5-----|
-----------------------------------------3--|
--------------------------------------------|


                                             
--------------------------------------------|
--------------------------------------------|
--------------------------------------------|
-----------------------------------------5--|
--2--2-2-2-2-2--2-2-2-2-2--2-2-2-2-2--3-----|
--------------------------------------------|


                                             
--------------------------------------------|
--------------------------------------------|
--------------------------------------------|
--4--4-4-4-4-4--4-4-4-4-4--4-4-4-4-4--5-----|
-----------------------------------------3--|
--------------------------------------------|


                                             
--------------------------------------------|
--------------------------------------------|
--------------------------------------------|
-----------------------------------------5--|
--2--2-2-2-2-2--2-2-2-2-2--2-2-2-2-2--3-----|
--------------------------------------------|


                                             
--------------------------------------------|
--------------------------------------------|
--------------------------------------------|
--4--4-4-4-4-4--4-4-4-4-4--4-4-4-4-4--5-----|
-----------------------------------------3--|
--------------------------------------------|


                                                                          
--------------------------------------|-----------|----------------------|
--------------------------------------|-----------|----------------------|
--------------------------------------|-----------|----------------------|
--------------------------------------|-----------|----------------------|
--2--0--1--2--------------------------|-----------|--4------5------0--2--|
--------------3--5--6--5--3--5--3--2--|--0--------|----------------------|


                                                              
---------------------|----------------------|----------------|
---------------------|----------------------|----------------|
---------------------|----------------------|----------------|
---------------------|----------------------|----------------|
--3------1-----------|--4------5------0--0--|--3------1------|
----------------0----|----------------------|----------------|


                                                                    
----------------------|---------------------|----------------------|
----------------------|---------------------|----------------------|
----------------------|---------------------|----------------------|
----------------------|---------------------|----------------------|
--4------5------0--2--|--3------1-----------|--4------5------0--0--|
----------------------|----------------0----|----------------------|


                                                              
----------------|----------------------|---------------------|
----------------|----------------------|---------------------|
----------------|----------------------|---------------------|
----------------|----------------------|---------------------|
--3------1------|--4------5------0--2--|--3------1-----------|
----------------|----------------------|----------------0----|


                                                               
----------------------|----------------|----------------------|
----------------------|----------------|----------------------|
----------------------|----------------|----------------------|
----------------------|----------------|---------0------------|
--4------5------0--0--|--3------1------|--4-------------0--2--|
----------------------|----------------|----------------------|


                                                              
---------------------|----------------------|----------------|
---------------------|----------------------|----------------|
---------------------|----------------------|----------------|
---------------------|----------------------|----------------|
--3------1-----------|--4------5------0--0--|--3------1------|
----------------0----|----------------------|----------------|


                                                                           
-----------------------|-----------------------|--------------------------|
-----------------------|-----------------------|--------------------------|
-----------------------|-----------------------|--------------------------|
-----------------------|-----------------------|--------------------------|
--2------2--1--2--1----|--------0--3--5--3-----|--------------------------|
-----------------------|--------------------6--|--3--3--3--3-3-2--3--2----|


                                                                    
------------------|------------------------|-----------------------|
------------------|------------------------|-----------------------|
------------------|------------------------|-----------------------|
------------------|------------------------|-----------------------|
------------------|------------------------|--------0--3--5--3-----|
------------------|--3----3--3--2--3--2----|--------------------6--|


                                                                     
------------------------|-----------------------|-------------------|
------------------------|-----------------------|-------------------|
------------------------|-----------------------|-------------------|
------------------------|-----------------------|-------------------|
------------------------|--------0--3--5--3--1--|--2----------------|
--3----3--3--2--3--2----|-----------------------|-------------------|


                                                                               
------------------|-------------------|-------------------|-------------------|
------------------|-------------------|-------------------|-------------------|
------------------|-------------------|-------------------|-------------------|
------------------|-------------------|-------------------|-------------------|
------------------|-------------------|--1----------------|--3----------------|
------------------|--3----------------|-------------------|-------------------|


                                                              
---------------------|-------------------|-------------------|
---------------------|-------------------|-------------------|
---------------------|-------------------|-------------------|
---------------------|-------------------|-------------------|
--5------------------|-------------------|--1----------------|
---------------1--2--|--3----------------|-------------------|


                                                                    
-------------------|---------------------|-------------------------|
-------------------|---------------------|-------------------------|
-------------------|---------------------|-------------------------|
-------------------|--0------------------|-------------------------|
--3----------------|---------------------|-------------------------|
-------------------|---------------1--2--|--3----0--0--0--0--0--0--|


                                                                              
-------------------------|-------------------------|-------------------------|
-------------------------|-------------------------|-------------------------|
-------------------------|-------------------------|-------------------------|
-------------------------|-------------------------|-------------------------|
--1----------------------|--3----------------------|--5----------------------|
-------0--0--0--0--0--0--|-------0--0--0--0--0--0--|-------0--0--0--0--1--2--|


                                                                              
-------------------------|-------------------------|-------------------------|
-------------------------|-------------------------|-------------------------|
-------------------------|-------------------------|-------------------------|
-------------------------|-------------------------|-------------------------|
-------------------------|--1----------------------|--3----------------------|
--3----0--0--0--0--0--0--|-------0--0--0--0--0--0--|-------0--0--0--0--0--0--|


                                                                              
-------------------------|-------------------------|-------------------------|
-------------------------|-------------------------|-------------------------|
-------------------------|-------------------------|-------------------------|
--0----------------------|-------------------------|--1----------------------|
-------------------------|--3----0--0--0--0--0--0--|-------0--0--0--0--0--0--|
-------0--0--0--0--1--2--|-------------------------|-------------------------|


                                                                              
-------------------------|-------------------------|-------------------------|
-------------------------|-------------------------|-------------------------|
-------------------------|-------------------------|-------------------------|
--3----------------------|--5----------------------|-------------------------|
-------0--0--0--0--0--0--|-------0--0--0--0--1--2--|--3----0--0--0--0--0--0--|
-------------------------|-------------------------|-------------------------|


                                                                              
-------------------------|-------------------------|-------------------------|
-------------------------|-------------------------|-------------------------|
-------------------------|-------------------------|-------------------------|
--1----------------------|--3----------------------|--5----------------------|
-------0--0--0--0--0--0--|-------0--0--0--0--0--0--|-------0--0--0--0--1--0--|
-------------------------|-------------------------|-------------------------|


                                                                              
-------------------------|-------------------------|-------------------------|
-------------------------|-------------------------|-------------------------|
-------------------------|-------------------------|-------------------------|
-------------------------|-------------------------|-------------------------|
-------------------------|--1----------------------|--3----------------------|
--3----0--0--0--0--0--0--|-------0--0--0--0--0--0--|-------0--0--0--0--0--0--|


                                                                              
-------------------------|-------------------------|-------------------------|
-------------------------|-------------------------|-------------------------|
-------------------------|-------------------------|-------------------------|
-------------------------|-------------------------|--1----------------------|
--5----------------------|--3----0--0--0--0--0--0--|-------0--0--0--0--0--0--|
-------0--0--0--0--1--2--|-------------------------|-------------------------|


                                                                             
-------------------------|-----------------------|--------------------------|
-------------------------|-----------------------|--------------------------|
-------------------------|-----------------------|--------------------------|
--3----------------------|--5--------------------|--------------------------|
-------0--0--0--0--0--0--|-------0--0--0--1------|--4--------------5--4-----|
-------------------------|-----------------------|-----0--2--3--5--------3--|


                                                                                
--------------------------|--------------------------|-------------------------|
--------------------------|--------------------------|-------------------------|
--------------------------|--------------------------|-------------------------|
--------------------------|--------------------------|-------------------------|
-----------------5--4-----|-----------------5--4--2--|-----------------5--4----|
--2--0--2--3--5--------5--|--4--0--2--3--5-----------|--5--0--2--3--5----------|


                                                      
--------------------------|--------------------------|
--------------------------|--------------------------|
--------------------------|--------------------------|
--------------------------|--------------------------|
--4--------------5--4-----|-----------------5--4-----|
-----0--2--3--5--------3--|--2--0--2--3--5--------5--|


                                                      
--------------------------|--------------------------|
--------------------------|--------------------------|
--------------------------|--------------------------|
--------------------------|--------------------------|
-----------------5--4--2--|-----------------5--4--5--|
--4--0--2--3--5-----------|--5--0--2--3--5-----------|


                                                                          
--------------------------|---------------------------|------------------|
--------------------------|---------------------------|------------------|
--------------------------|--4--3--4--6--8--10--9-----|------------------|
--3--2--3--5--6--5--6--8--|---------------------------|------------------|
--------------------------|------------------------4--|------------------|
--------------------------|---------------------------|------------------|


                                                    
------------------|--------------------------------|
------------------|--------------------------------|
------------------|--------------------------------|
------------------|--------------------------------|
------------------|--5--5--5--5--5--5--5--5--5--5--|
------------------|--------------------------------|


                                                              
--------------------------------|----------------------------|
--------------------------------|----------------------------|
--------------------------------|----------------------------|
--------------------------------|----------------------------|
-----------------5--5--5--5--5--|----------------------------|
--6--6--6--6--6-----------------|--5--5--5--5--5--5--5--3----|


                                                               
-----------------------------|--------------------------------|
-----------------------------|--------------------------------|
-----------------------------|--------------------------------|
-----------------------------|--------------------------------|
-----------------------------|-----------------3--3--3--3--3--|
--3--3--3--3--3--3--3--3--1--|--1--1--1--1--1-----------------|


                                                         
--------------------------|-----------------------------|
--------------------------|-----------------------------|
--------------------------|-----------------------------|
--------------------------|-----------------------------|
--0---0-0---0-0---0-0---0-|--0---0-0---0-0---0-0--0--0--|
--------------------------|-----------------------------|


                                                                  
--------------------------------|--------------------------------|
--------------------------------|--------------------------------|
--------------------------------|--------------------------------|
--------------------------------|--------------------------------|
--5--5--5--5--5--5--5--5--5--5--|-----------------5--5--5--5--5--|





Comments


Popular Mercyful Fate tabs & chords
Burn In Hell Bass Tabs
Evil Bass Tabs
At The Sound Of The Demon Bell Tabs
Egypt Tabs
Into The Unknown Tabs
Nightmare Be Thy Name Tabs
Satan's Fall 1 Tabs
The Mad Arab 1 Tabs
The Oath (Solo) Tabs
Torture 1 Tabs


Song lyrics



↑ Back to top | Tablatures and chords are parodies/interpretations of the original songs. You may use it for private study, scholarship, research or language learning purposes only
© 2014 AZChords.com Contact us | Privacy policy | DMCA | Add/correct tabs | Request tabs | Top 50 tabs