>
 >
Time

Time Bass Tabs

Mercyful Fate - Time chords, tabs, tablatures, lyrics

Guitar lessons | Add/correct | Request | Top 50 tabs Artists:  A B C D E F G H I J K L M N O P Q R S T U V W X Y Z 0-9

Time Bass Tabs – Mercyful Fate

CD, Sheet music, Poster

Do you like Time? Share with your friends now
Bass TabsTabs
G||------|------||-------|------|-------||------|------|------|------|------|
D||------|------||*------|------|------*||------|------|------|------|------|
A||------|------||*------|------|------*||------|------|------|------|------|
E||------|------||-------|------|-------||------|------|------|------|------|


                                                                   
------|--------------------|-------------------|------------------|
------|--------------------|-------------------|------------------|
------|--10----------------|----------5--------|------------------|
------|--------------------|-------------------|------------------|


                                                                               
-------------------|-------------------|------------------|-------------------|
-------------------|-------------------|------------------|-------------------|
--6----------------|----------9--------|------------------|--6----------------|
-------------------|-------------------|------------------|-------------------|


                                                                                
-------------------|------------------|--------------------|-------------------|
-------------------|------------------|--------------------|-------------------|
----------8--------|------------------|--10----------------|----------5--------|
-------------------|------------------|--------------------|-------------------|


                                                                              
------------------|-------------------|-------------------|------------------|
------------------|-------------------|-------------------|------------------|
------------------|--6----------------|----------8--------|------------------|
------------------|-------------------|-------------------|------------------|


                                                                                
-------------------|------------------|-------------------|--------------------|
-------------------|------------------|-------------------|--------------------|
--5----------------|------------------|--------------5----|--10----------------|
-------------------|------------------|-------------------|--------------------|


                                                            
--------------------|------------------|-------------------|
--------------------|------------------|-------------------|
----------13--------|------------------|--8----------------|
--------------------|------------------|-------------------|


                                                              
--------------------|-------------------|--------------------|
--------------------|-------------------|--------------------|
----------10--------|------8------------|--10----------------|
--------------------|-------------------|--------------------|


                                                                                
--------------------|------------------|-------------------|-------------------|
--------------------|------------------|-------------------|-------------------|
----------13--------|------------------|--3----------------|----------5--------|
--------------------|------------------|-------------------|-------------------|


                                                                               
-------------------|-------------------|-------------------|------------------|
-------------------|--8----------------|----------6--------|------------------|
------3------------|-------------------|-------------------|------------------|
-------------------|-------------------|-------------------|------------------|


                                                                                
-------------------|-------------------|------------------|--------------------|
--8----------------|-------------------|------------------|--11----------------|
-------------------|-------------------|------------------|--------------------|
-------------------|----------8--------|------------------|--------------------|


                                                             
--------------------|------------------|--------------------|
----------10--------|------------------|--------------------|
--------------------|------------------|--8------------6----|
--------------------|------------------|--------------------|


                                                              
---------------------|------------------|--------------------|
---------------------|------------------|--------------------|
--6----6----8--------|------------------|--8------------6----|
---------------------|------------------|--------------------|


                                                                               
---------------------|------------------|------------------|------------------|
---------------------|------------------|------------------|------------------|
--6----6----8--------|------------------|------------------|------------------|
---------------------|------------------|------------------|------------------|


                                                                   
|-------|------|-------||--------------------|--------------------|
|*------|------|------*||--------------------|--------------------|
|*------|------|------*||--10----------------|----------10--------|
|-------|------|-------||--------------------|--------------------|


                                                                                
------------------|--------------------|--------------------|------------------|
------------------|--------------------|--------------------|------------------|
------------------|--10----------------|----------10--------|------------------|
------------------|--------------------|--------------------|------------------|


                                                                                
-------------------|-------------------|------------------|--------------------|
-------------------|-------------------|------------------|--------------------|
--6----------------|----------8--------|------------------|--10----------------|
-------------------|-------------------|------------------|--------------------|


                                                                                
--------------------|------------------|-------------------|-------------------|
--------------------|------------------|-------------------|-------------------|
----------10--------|------------------|--6----------------|----------8--------|
--------------------|------------------|-------------------|-------------------|


                                                                              
------------------|-------------------|------------------|-------------------|
------------------|-------------------|------------------|-------------------|
------------------|--5----------------|------------------|--------------5----|
------------------|-------------------|------------------|-------------------|


                                                             
--------------------|--------------------|------------------|
--------------------|--------------------|------------------|
--10----------------|----------13--------|------------------|
--------------------|--------------------|------------------|


                                                             
-------------------|--------------------|-------------------|
-------------------|--------------------|-------------------|
--8----------------|----------10--------|------8------------|
-------------------|--------------------|-------------------|


                                                             
--------------------|--------------------|------------------|
--------------------|--------------------|------------------|
--10----------------|----------13--------|------------------|
--------------------|--------------------|------------------|


                                                                                
-------------------|-------------------|-------------------|-------------------|
-------------------|-------------------|-------------------|--8----------------|
--3----------------|----------5--------|------3------------|-------------------|
-------------------|-------------------|-------------------|-------------------|


                                                                               
-------------------|------------------|-------------------|-------------------|
----------6--------|------------------|--8----------------|-------------------|
-------------------|------------------|-------------------|-------------------|
-------------------|------------------|-------------------|----------8--------|


                                                                                
------------------|--------------------|--------------------|------------------|
------------------|--11----------------|----------10--------|------------------|
------------------|--------------------|--------------------|------------------|
------------------|--------------------|--------------------|------------------|


                                                              
--------------------|---------------------|------------------|
--------------------|---------------------|------------------|
--8------------6----|--6----6----8--------|------------------|
--------------------|---------------------|------------------|


                                                              
--------------------|---------------------|------------------|
--------------------|---------------------|------------------|
--8------------6----|--6----6----8--------|------------------|
--------------------|---------------------|------------------|


                                                                                
------------------|------------------|------|------|------|------|------|------|
------------------|------------------|------|------|------|------|------|------|
------------------|------------------|------|------|------|------|------|------|
------------------|------------------|------|------|------|------|------|------|


                                                                               
-------------------|-------------------|------------------|-------------------|
--5----------------|----------5--------|------------------|--5----------------|
-------------------|-------------------|------------------|-------------------|
-------------------|-------------------|------------------|-------------------|


                                                                               
-------------------|------------------|-------------------|-------------------|
----------5--------|------------------|-------------------|-------------------|
-------------------|------------------|--6----------------|----------8--------|
-------------------|------------------|-------------------|-------------------|


                                                                              
------------------|-------------------|-------------------|------------------|
------------------|--5----------------|----------5--------|------------------|
------------------|-------------------|-------------------|------------------|
------------------|-------------------|-------------------|------------------|


                                                                               
-------------------|-------------------|------------------|-------------------|
-------------------|-------------------|------------------|-------------------|
--6----------------|----------8--------|------------------|--5----------------|
-------------------|-------------------|------------------|-------------------|


                                                                               
------------------|------------------|--------------------|-------------------|
------------------|------------------|--------------------|----------8--------|
------------------|------------------|--10----------------|-------------------|
------------------|------------------|--------------------|-------------------|


                                                                                
------------------|-------------------|--------------------|-------------------|
------------------|-------------------|--------------------|-------------------|
------------------|--8----------------|----------10--------|------8------------|
------------------|-------------------|--------------------|-------------------|


                                                                                
--------------------|-------------------|------------------|-------------------|
--------------------|----------8--------|------------------|-------------------|
--10----------------|-------------------|------------------|--8----------------|
--------------------|-------------------|------------------|-------------------|


                                                             
--------------------|-------------------|-------------------|
--------------------|-------------------|--8----------------|
----------10--------|------8------------|-------------------|
--------------------|-------------------|-------------------|


                                                           
-------------------|------------------|-------------------|
----------6--------|------------------|--8----------------|
-------------------|------------------|-------------------|
-------------------|------------------|-------------------|


                                                                  
------------------------|-------------------|--------------------|
--10----11----10--------|--8----------------|--11----------------|
------------------------|-------------------|--------------------|
------------------------|-------------------|--------------------|


                                                                     
------------------------|----------------------|--------------------|
--10----11----10--------|----------11----10----|--------------------|
------------------------|----------------------|--8------------8----|
------------------------|----------------------|--------------------|


                                                             
-------------------|-------------------|--------------------|
-------------------|-------------------|--------------------|
----------8--------|------8------------|--8------------8----|
-------------------|-------------------|--------------------|


                                                             
-------------------|-------------------|--------------------|
-------------------|-------------------|--------------------|
----------8--------|------8------------|--6------------6----|
-------------------|-------------------|--------------------|


                                                             
-------------------|-------------------|--------------------|
-------------------|-------------------|--------------------|
----------6--------|------6------------|--8------------8----|
-------------------|-------------------|--------------------|


                                                             
-------------------|-------------------|--------------------|
-------------------|-------------------|--------------------|
----------8--------|------8------------|--5------------3----|
-------------------|-------------------|--------------------|


                                                                                
-------------------|------------------|--------------------|-------------------|
-------------------|------------------|--------------------|-------------------|
----------5--------|------------------|--5------------3----|----------5--------|
-------------------|------------------|--------------------|-------------------|


                                                                                
------------------|--------------------|-------------------|-------------------|
------------------|--------------------|-------------------|-------------------|
------------------|--8------------8----|----------8--------|------8------------|
------------------|--------------------|-------------------|-------------------|


                                                             
--------------------|-------------------|-------------------|
--------------------|-------------------|-------------------|
--8------------8----|----------8--------|------8------------|
--------------------|-------------------|-------------------|


                                                             
--------------------|--------------------|------------------|
--------------------|--------------------|------------------|
--10----------------|----------10--------|------------------|
--------------------|--------------------|------------------|


                                                             
--------------------|-------------------|-------------------|
--------------------|-------------------|-------------------|
--8------------8----|----------8--------|------8------------|
--------------------|-------------------|-------------------|


                                                             
--------------------|--------------------|------------------|
--------------------|--------------------|------------------|
--10----------------|----------10--------|------------------|
--------------------|--------------------|------------------|


                                                             
--------------------|-------------------|-------------------|
--------------------|-------------------|-------------------|
--8------------8----|----------8--------|------8------------|
--------------------|-------------------|-------------------|


                                                             
--------------------|-------------------|-------------------|
--------------------|-------------------|-------------------|
--6------------6----|----------6--------|------6------------|
--------------------|-------------------|-------------------|


                                                             
--------------------|-------------------|-------------------|
--------------------|-------------------|-------------------|
--8------------8----|----------8--------|------8------------|
--------------------|-------------------|-------------------|


                                                            
--------------------|-------------------|------------------|
--------------------|-------------------|------------------|
--5------------3----|----------5--------|------------------|
--------------------|-------------------|------------------|


                                                                               
--------------------|-------------------|------------------|------------------|
--------------------|-------------------|------------------|------------------|
--5------------3----|----------5--------|------------------|------------------|
--------------------|-------------------|------------------|------------------|





Comments


Popular Mercyful Fate tabs & chords
Castillo Del Mortes Tabs
Come To The Sabbath Tabs
Egypt Tabs
Is That You, Melissa 1 Tabs
Last Rites 1 Tabs
Nuns Have No Fun Tabs
Return Of The Vampire 1 Tabs
The Preacher Tabs
Torture Tabs
Under The Spell Tabs


Song lyrics



↑ Back to top | Tablatures and chords are parodies/interpretations of the original songs. You may use it for private study, scholarship, research or language learning purposes only
© 2014 AZChords.com Contact us | Privacy policy | DMCA | Add/correct tabs | Request tabs | Top 50 tabs