» » »

Fight Fire With Fire Bass tabs (ver.1)

Artists:  A B C D E F G H I J K L M N O P Q R S T U V W X Y Z # 

Fight Fire With Fire Bass tabs (ver.1)

Metallica
Rating:
0/5 (0 votes)
Tabs too difficult? Try these video lessons and learn fast.
                -----------------------------------------------------------------------------
			     Fight Fire With Fire - Metallica
					Ride The Lightning
-----------------------------------------------------------------------------



Peavey Cab, 2 X 10" Peavey Cab, Peavey Classic series 120/120 Power Amp. Trace Elliot
GP12-SMX 12 Band Graphic EQ Pre-amplification System.

This is the Fight Fire With Fire bass tab which is off the Ride The Lightning album.
I play this song with a pick as I do with every MetallicA song. This tab may not be
exactly how it is played from a book you may buy for Metallica bass tabs. But this
is how I play it, I have a progressive style so have fun with these lines! If you
would like to have the sound files which I recorded for this song which is only bass,

If You have any suggestions/changes or coments, please feel free email them on as well.

Tuning : Standard G,D,A,E

G||-------||------||---------------||----------------|
D||-------||------||---------------||----------------|
A||-------||-REST-||---R---R-------||---R---R--------|
E||---0---||------||-3---2---3-2-1-||-3---2---3-2-1--|

G|----------------------------------------------------------------|
D|----------------------------------------------------------------|
A|----------------------------------------------------------------|
E|-0000-3-0000-2-0000-3-00-2-00-1--0000-3-0000-2-0000-3-00-2-00-1-|

G|----------------------------------------------------------------|
D|----------------------------------------------------------------|
A|----------------------------------------------------------------|
E|-0000-3-0000-2-0000-3-00-2-00-1--0000-3-0000-2-0000-3-00-2-00-1-|

G|--------------------------------------------|
D|--------------------------------------------|
A|--------------------------------------------|
E|--00-3-5p0-00-3-00-23-00-3-5p0-00-3-00-2-2--|

G|--------------------------------------------|
D|--------------------------------------------|
A|--------------------------------------------|
E|--00-3-5p0-00-3-00-23-00-3-5p0-00-3-00-2-2--|

G|--------------------------------------------|
D|--------------------------------------------|
A|--------------------------------------------|
E|--00-3-5p0-00-3-00-23-00-3-5p0-00-3-00-2-2--|

G|--------------------------------------------|
D|--------------------------------------------|
A|--------------------------------------------|
E|--00-3-5p0-00-3-00-23-00-3-5p0-00-3-00-2-2--|

G|------------------------------------------|
D|------------------------------------------|
A|------------------------------------------|
E|--00-3-5p0-00-3-00-23-00-3-5p0-00-3-00-2--|

G|----------------------------------------------------------------|
D|----------------------------------------------------------------|
A|----------------------------------------------------------------|
E|-0000-3-0000-2-0000-3-00-2-00-1--0000-3-0000-2-0000-3-00-2-00-1-|

G|----------------------------------------------------------------|
D|----------------------------------------------------------------|
A|----------------------------------------------------------------|
E|-0000-3-0000-2-0000-3-00-2-00-1--0000-3-0000-2-0000-3-00-2-00-1-|

G|--------------------------------------------|
D|--------------------------------------------|
A|--------------------------------------------|
E|--00-3-5p0-00-3-00-23-00-3-5p0-00-3-00-2-2--|

G|------------------------------------------|
D|------------------------------------------|
A|------------------------------------------|
E|--00-3-5p0-00-3-00-23-00-3-5p0-00-3-00-2--|

G|----------------------------------------------------------------|
D|----------------------------------------------------------------|
A|----------------------------------------------------------------|
E|-0000-3-0000-2-0000-3-00-2-00-1--0000-3-0000-2-0000-3-00-2-00-1-|

G|----------------------------------------------------------------|
D|----------------------------------------------------------------|
A|----------------------------------------------------------------|
E|-0000-3-0000-2-0000-3-00-2-00-1--0000-3-0000-2-0000-3-00-2-00-1-|

G|--------------------------------------------|
D|--------------------------------------------|
A|--------------------------------------------|
E|--00-3-5p0-00-3-00-23-00-3-5p0-00-3-00-2-2--|

G|------------------------------------------|
D|------------------------------------------|
A|------------------------------------------|
E|--00-3-5p0-00-3-00-23-00-3-5p0-00-3-00-2--|

G|-----------------------------------------------------|
D|-----------------------------------------------------|
A|-----------------------------------------------------|
E|-0-3-0-5-7-6-666-666-666-6-0-3-0-5-7-6-666-666-666-6-|

G|----------------------------------------|
D|----------------------------------------|
A|----------------------------------------|
E|-0-3-0-5-7-6-666-666-666-6-0-3-0-5-7-6--|

G|----------------------------------------------------------------|
D|----------------------------------------------------------------|
A|----------------------------------------------------------------|
E|-0000-3-0000-2-0000-3-00-2-00-1--0000-3-0000-2-0000-3-00-2-00-1-|

G|----------------------------------------------------------------|
D|----------------------------------------------------------------|
A|----------------------------------------------------------------|
E|-0000-3-0000-2-0000-3-00-2-00-1--0000-3-0000-2-0000-3-00-2-00-1-|

G|----------------------------------------------------------------|
D|----------------------------------------------------------------|
A|----------------------------------------------------------------|
E|-0000-3-0000-2-0000-3-00-2-00-1--0000-3-0000-2-0000-3-00-2-00-1-|

G|----------------------------------------------------------------|
D|----------------------------------------------------------------|
A|----------------------------------------------------------------|
E|-0000-3-0000-2-0000-3-00-2-00-1--0000-3-0000-2-0000-3-00-2-00-1-|

G|--------------------------------------------|
D|--------------------------------------------|
A|--------------------------------------------|
E|--00-3-5p0-00-3-00-23-00-3-5p0-00-3-00-2-2--|

G|------------------------------------------|
D|------------------------------------------|
A|------------------------------------------|
E|--00-3-5p0-00-3-00-23-00-3-5p0-00-3-00-2--|

G|-----------------------------------------------------|
D|-----------------------------------------------------|
A|-----------------------------------------------------|
E|-0-3-0-5-7-6-666-666-666-6-0-3-0-5-7-6-666-666-666-6-|

G|----------------------------------------|
D|----------------------------------------|
A|----------------------------------------|
E|-0-3-0-5-7-6-666-666-666-6-0-3-0-5-7-6--|

G|-------------------|---------------|---------|
D|-------------------|---------------|---------|
A|---5--3--2--0(0)---|----0--2--3(3)-|---------|
E|-------------------|-3-------------|-3-2-1-0-|

G|-----------------------------------------------------|
D|-----------------------------------------------------|
A|-----------------------------------------------------|
E|-000-0-000-0-000-0-000-0-000-0-000-0-000-0-000-0-000-|

G|-------------------------------------------|
D|-------------------------------------------|
A|-------------------------------------------|
E|-555-5-555-5-555-5-333-3-333-3-222-2-222-2-|

G|-----------------------------------------------------|
D|-----------------------------------------------------|
A|-----------------------------------------------------|
E|-000-0-000-0-000-0-000-0-000-0-000-0-000-0-000-0-000-|

G|-------------------------------------------|
D|-------------------------------------------|
A|-------------------------------------------|
E|-555-5-555-5-555-5-333-3-333-3-222-2-222-2-|

G|----------------------------------------------------|
D|----------------------------------------------------|
A|----------------------------------------------------|
E|-0--2-3p0-2-3p0-2-3p0-2-3p0-2-3p0-2-3p0-2-3p0-2-3p0-|

G|-----------------------------------------------------|
D|-----------------------------------------------------|
A|-----------------------------------------------------|
E|-000-0-000-0-000-0-000-0-000-0-000-0-000-0-000-0-000-|

G|-------------------------------------------|
D|-------------------------------------------|
A|-------------------------------------------|
E|-555-5-555-5-555-5-333-3-333-3-222-2-222-2-|

G|-----------------------------------------------------|
D|-----------------------------------------------------|
A|-----------------------------------------------------|
E|-000-0-000-0-000-0-000-0-000-0-000-0-000-0-000-0-000-|

G|-------------------------------------------|
D|-------------------------------------------|
A|-------------------------------------------|
E|-555-5-555-5-555-5-333-3-333-3-222-2-222-2-|

G|---------------------------------------------------|------|
D|---------------------------------------------------|------|
A|---------------------------------------------------|-RING-|
E|-0-2-3p0-2-3p0-2-3p0-2-3p0-2-3p0-2-3p0-2-3p0-2-3p0-|--0---|

G|----------------------------------------------------------------|
D|----------------------------------------------------------------|
A|----------------------------------------------------------------|
E|-0000-3-0000-2-0000-3-00-2-00-1--0000-3-0000-2-0000-3-00-2-00-1-|

G|----------------------------------------------------------------|
D|----------------------------------------------------------------|
A|----------------------------------------------------------------|
E|-0000-3-0000-2-0000-3-00-2-00-1--0000-3-0000-2-0000-3-00-2-00-1-|

G|--------------------------------------------|
D|--------------------------------------------|
A|--------------------------------------------|
E|--00-3-5p0-00-3-00-23-00-3-5p0-00-3-00-2-2--|

G|------------------------------------------|
D|------------------------------------------|
A|------------------------------------------|
E|--00-3-5p0-00-3-00-23-00-3-5p0-00-3-00-2--|

G|-----------------------------------------------------|
D|-----------------------------------------------------|
A|-----------------------------------------------------|
E|-0-3-0-5-7-6-666-666-666-6-0-3-0-5-7-6-666-666-666-6-|

G|-----------------------------------------------------|
D|-----------------------------------------------------|
A|-----------------------------------------------------|
E|-0-3-0-5-7-6-666-666-666-6-0-3-0-5-7-6-666-666-666-6-|

G|-----------------------------------------------------|
D|-----------------------------------------------------|
A|-----------------------------------------------------|
E|-0-3-0-5-7-6-666-666-666-6-0-3-0-5-7-6-666-666-666-6-|

G|-----------------------------------------------------|
D|-----------------------------------------------------|
A|-----------------------------------------------------|
E|-0-3-0-5-7-6-666-666-666-6-0-3-0-5-7-6-666-666-666-6-|

G|-----------------------------------------------------|
D|-----------------------------------------------------|
A|-----------------------------------------------------|
E|-0-3-0-5-7-6-666-666-666-6-0-3-0-5-7-6-666-666-666-6-|

G|-----------------------------------------------------|
D|-----------------------------------------------------|
A|-----------------------------------------------------|
E|-0-3-0-5-7-6-666-666-666-6-0-3-0-5-7-6-666-666-666-6-|

G|---------------------||------||-------------------||
D|---------------------||------||-------------------||
A|---------------------||-RING-||-------------7\----||
E|-0.--------------0(0)||-(0)--||---000--000--0-\---||

-The Metal Messiah!

| /  slide up
| \  slide down
| h  hammer-on
| p  pull-off
| ~  vibrato
| +  harmonic
| x  Mute note
=============================================================================
            
Tabs too difficult? Try these video lessons and learn fast.


comments powered by Disqus
↑ Back to top | Tablatures and chords are parodies/interpretations of the original songs. You may use it for private study, scholarship, research or language learning purposes only