» » »

Twelve Days Of Christmas Tabs (ver.4)

Artists:  A B C D E F G H I J K L M N O P Q R S T U V W X Y Z # 

Twelve Days Of Christmas Tabs (ver.4)

Misc Christmas
Rating:
0/5 (0 votes)

Tabs too difficult? Try these video lessons and learn fast.
                This is the first tab I´ve submitted, so go easy on me. This is how i play this 
song. Standard tuning.

Have fun, and merry christmas!!

Rate!!!

1st verse
|--------------------0-1---0----0-1-3-5-1-0-----------------------------|
|-------1-1-1--0-1-3-----3------------------1-3-1-----------------------|
|-0-0-0-----------------------------------------------------------------|
|-----------------------------------------------------------------------|
|-----------------------------------------------------------------------|
|-----------------------------------------------------------------------|
                                "Hook"
2nd, 3rd, 4th verse           _ Repeat  _
                               |x verse|
                               |       |
|--------------------0-1---0----3---0-1---0-1-3-5-1-0-------------------|
|-------1-1-1--0-1-3-----3--------3-------------------1-3-1-------------|
|-0-0-0-----------------------------------------------------------------|
|-----------------------------------------------------------------------|
|-----------------------------------------------------------------------|
|-----------------------------------------------------------------------|

5th verse
|--------------------0-1---0----3--5-2-3----3-1-0------1----------------|
|-------1-1-1--0-1-3-----3------------------------3-1------1--3-1-0-----|
|-0-0-0--------------------------------------------------2----------2-0-|
|-----------------------------------------------------------------------|
|-----------------------------------------------------------------------|
|-----------------------------------------------------------------------|

Continued 5th verse
|-0-1-3-5-1-0-----------------------------------------------------------|
|-------------1-3-1-----------------------------------------------------|
|-----------------------------------------------------------------------|
|-----------------------------------------------------------------------|
|-----------------------------------------------------------------------|
|-----------------------------------------------------------------------|

When you get to "5 golden rings", you play the ending from 5th verse which is:

|-3--5-2-3----3-1-0------1-----------------0-1-3-5-1-0------------------|
|-------------------3-1------1--3-1-0------------------1-3-1------------|
|--------------------------2----------2-0-------------------------------|
|-----------------------------------------------------------------------|
|-----------------------------------------------------------------------|
|-----------------------------------------------------------------------|
            
Tabs too difficult? Try these video lessons and learn fast.




comments powered by Disqus
↑ Back to top | Tablatures and chords are parodies/interpretations of the original songs. You may use it for private study, scholarship, research or language learning purposes only