» » »

Wsrod Nocnej Ciszy Tabs (ver.1)

Artists:  A B C D E F G H I J K L M N O P Q R S T U V W X Y Z # 

Wsrod Nocnej Ciszy Tabs (ver.1)

Misc Christmas
Rating:
0/5 (0 votes)

Tabs too difficult? Try these video lessons and learn fast.
                ---------------------------------------------------------------------------
                          "Wsrod nocnej ciszy"
---------------------------------------------------------------------------

tuning: standard
---------------------------------------------------------------------------

Guitar #1 (rhythm)

C     G      C              G     C
Wsrsd nocnej ciszy glos sie rozchodzi
C    G       C              G     C
Wstancie, pasterze, Bog sie wam rodzi
Am               Dm   G
Czym predzej sie wybierajcie
Am          Dm    G
Do Betlejem pospieszajcie
C     G     C
Przywitac Pana 2x

C  G       C            G        C
Poszli, znalezli Dzieciatko w zlobie
C      G     C         G    C
Z wszystkimi znaki danymi sobie.
Am        Dm       G
Jako Bogu czesc Mu dali
Am        Dm  G
A witajac zawolali
C          G   C
Z wielkiej radosci 2x

C    G     C              G   C
Ach, witaj Zbawco z dawna zadany
C   G    C           G    C
Cztery tysiace lat wygladany
Am           Dm     G
Na Ciebie krole, prorocy
Am         Dm      G
Czekali, a Tys tej nocy
C       G   C
Nam sie objawil 2x

C G     C          G      C
I my czekamy na Ciebie, Pana
C G     C                   G    C
A skoro przyjdziesz na glos kaplana
Am          Dm          G
Padniemy na twarz przed Toba
Am                Dm    G
Wierzac, zes jest pod oslona
C      G   C
Chleba i wina 2x

---------------------------------------------------------------------------

Guitar #2 (lead)

    ------------------|--12-12-13----12~--|
    --13-15-12-13-----|-----------15------|
    --------------12~-|-------------------|
    ------------------|-------------------|
    ------------------|-------------------|
    ------------------|-------------------| 2x

    ----12---12-13------------|
    --13---13------15-12------|
    ---------------------12~--|
    --------------------------|
    --------------------------|
    --------------------------| 2x

    --------------12~-----------------|
    --13-13-15-15----13-13-15-15-13~--|
    ----------------------------------|
    ----------------------------------|
    ----------------------------------|
    ----------------------------------|

---------------------------------------------------------------------------
rate, comment & enjoy :)
            
Tabs too difficult? Try these video lessons and learn fast.


comments powered by Disqus
↑ Back to top | Tablatures and chords are parodies/interpretations of the original songs. You may use it for private study, scholarship, research or language learning purposes only