» » »

Back To The Future Tabs (ver.4)

Artists:  A B C D E F G H I J K L M N O P Q R S T U V W X Y Z # 

Back To The Future Tabs (ver.4)

Misc Soundtrack
Rating:
0/5 (0 votes)

Tabs too difficult? Try these video lessons and learn fast.
                (Theme)
-------------------------------------------------------------------------
            Back To The Future Theme - Misc Soundtrack
-------------------------------------------------------------------------

Tuning: Standard

e|---3-8-6-5-3-1--3--8---15--20-18-17-17-15-13-15---------------------|
B|-1------------------------------------------------------------------|
G|--------------------------------------------------------------------|
D|--------------------------------------------------------------------|
A|--------------------------------------------------------------------|
E|--------------------------------------------------------------------|

e|----3---2-3-5-3-0---2-3-5-3---3-10---10-9-9-10------3---3--8-3--10-15|
B|------1-----------1---------3---------------------3---3--------------|
G|---------------------------------------------------------------------|
D|---------------------------------------------------------------------|
A|---------------------------------------------------------------------|
E|---------------------------------------------------------------------|

e|-----8-1--7-8-10--8-5-1-7-8-10---8-3-8-15-15-14-12-14-15------------|
B|--------------------------------------------------------------------|
G|--------------------------------------------------------------------|
D|--------------------------------------------------------------------|
A|--------------------------------------------------------------------|
E|--------------------------------------------------------------------|

e|----13-12-10-12-10-10-15--13-12-10-12-10-8-10---5-7-8-12-15-17------|
B|----------------------------------------------3---------------------|
G|--------------------------------------------------------------------|
D|--------------------------------------------------------------------|
A|--------------------------------------------------------------------|
E|--------------------------------------------------------------------|

e|------18-10-13-17-8-13-13-11--10-10-11-9--8-8--------------7-6-6-7-9|
B|------------------------------------------------2-0-----------------|
G|----------------------------------------------------3-3-------------|
D|--------------------------------------------------------------------|
A|--------------------------------------------------------------------|
E|--------------------------------------------------------------------|

e|--------------1---3----4-1-6-3--8-4-9-6-11-4--10-10-11-13-14-11-7---|
B|------2---4-1---2---4-----------------------------------------------|
G|--------3-----------------------------------------------------------|
D|--------------------------------------------------------------------|
A|--------------------------------------------------------------------|
E|--------------------------------------------------------------------|

e|-----13-14-16-17-16--------0--6--7-9-7-4-0--6-7-9-10--3-9--10-12-13-|
B|--------------------------------------------------------------------|
G|--------------------------------------------------------------------|
D|--------------------------------------------------------------------|
A|--------------------------------------------------------------------|
E|--------------------------------------------------------------------|

e|-6-12--13-15-16-13-13-13---0-5-9-0-5-9-9-12--17--10-7-15--10-7-17---|
B|--------------------------------------------------------------------|
G|--------------------------------------------------------------------|
D|--------------------------------------------------------------------|
A|--------------------------------------------------------------------|
E|--------------------------------------------------------------------|


e|---10--7-15--10-7-17-17-19---20-17--12-12-20--19-22-20-17-20-17-----|
B|--------------------------------------------------------------------|
G|--------------------------------------------------------------------|
D|--------------------------------------------------------------------|
A|--------------------------------------------------------------------|
E|--------------------------------------------------------------------|

e|-12-19--17-12-17----------1---1---------1-----6----------1-2-4--5---|
B|------------------4---3-4---4---4-1---3---4-4---4-0-2-4-----------3-|
G|--------------------1-----------------------------------------------|
D|--------------------------------------------------------------------|
A|--------------------------------------------------------------------|
E|--------------------------------------------------------------------|


e|-4-5-7-5-2---4-5-7-5-0-5-12--12-11-9-11-12-0-5------|
B|-----------3----------------------------------------|
G|----------------------------------------------------|
D|----------------------------------------------------|
A|----------------------------------------------------|
E|----------------------------------------------------|
            
Tabs too difficult? Try these video lessons and learn fast.


comments powered by Disqus
↑ Back to top | Tablatures and chords are parodies/interpretations of the original songs. You may use it for private study, scholarship, research or language learning purposes only