» » »

Batman Tabs (ver.4)

Artists:  A B C D E F G H I J K L M N O P Q R S T U V W X Y Z # 

Batman Tabs (ver.4)

Misc Soundtrack
Rating:
0/5 (0 votes)

Tabs too difficult? Try these video lessons and learn fast.
                (Theme)


E|-----------------|
B|-----------------|
G|-7-7-6-6-5-5-6-6-|
D|-----------------|
A|-5-5-4-4-3-3-4-4-| x4
E|-----------------|

E|-------------------------|
B|-------------------------|
G|-12-12-11-11-10-10-11-11-|
D|-------------------------|
A|-10-10--9--9--8--8--9--9-| x2
E|-------------------------|

E|-----------------|
B|-----------------|
G|-7-7-6-6-5-5-6-6-|
D|-----------------|
A|-5-5-4-4-3-3-4-4-| x2
E|-----------------|

Ending: 

E|-------------------------|
B|-------------------------|
G|-14-14-13-13-12-12-13-13-|
D|-------------------------|
A|-12-12-11-11-10-10-11-11-|
E|-------------------------|

Or, alternatively: 


E|--------------------------------------|
B|-7---7------5---5---------------------|
G|-7---7------5---5-----7-7-6-6-5-5-6-6-|
D|-7---7------5---5---------------------|
A|-5---5------3---3-----5-5-4-4-3-3-4-4-|
E|--------------------------------------|
            
Tabs too difficult? Try these video lessons and learn fast.




comments powered by Disqus
↑ Back to top | Tablatures and chords are parodies/interpretations of the original songs. You may use it for private study, scholarship, research or language learning purposes only