» » »

Edge Of Night Pippin Song Bass tabs (ver.1)

Artists:  A B C D E F G H I J K L M N O P Q R S T U V W X Y Z # 

Edge Of Night Pippin Song Bass tabs (ver.1)

Misc Soundtrack
Rating:
0/5 (0 votes)
Tabs too difficult? Try these video lessons and learn fast.
                
G------13-13-13---13-15-16h18h16-15-13-13----------13-13-15-16-15-13----18-18-13-18-20-21-20-18-|
D---11----------------------------------------11-11---------------------------------------------|
A-----------------------------------------------------------------------------------------------|
E-----------------------------------------------------------------------------------------------|

G---------13-13-15-16-15-13---------18-18-18-13-18-20-21-20-18----------------------------------|
D---11-11---------------------------------------------------------------------------------------|
A-----------------------------------------------------------------------------------------------|
E-----------------------------------------------------------------------------------------------|

G------13-13-13---13-15-16-18-16-13h15h13-11---13~----------------------------------------------|
D---11------------------------------------------------------------------------------------------|
A-----------------------------------------------------------------------------------------------|
E-----------------------------------------------------------------------------------------------|
            
Tabs too difficult? Try these video lessons and learn fast.


comments powered by Disqus
↑ Back to top | Tablatures and chords are parodies/interpretations of the original songs. You may use it for private study, scholarship, research or language learning purposes only