» » »

Evangelion - Cruel Angels Thesis Tabs (ver.1)

Artists:  A B C D E F G H I J K L M N O P Q R S T U V W X Y Z # 

Evangelion - Cruel Angels Thesis Tabs (ver.1)

Misc Soundtrack
Rating:
0/5 (0 votes)

Tabs too difficult? Try these video lessons and learn fast.
                Neon Genesis Evangelion
Cruel Angel's Thesis (Opening Theme - TV Version)


(Take note this is played in a different pitch than the other tab)

E -----1---1-1-1-6-4-3-1-3-|-3-6-8-----6-6-3-6-6-8-|
B -1-4---4-----------------|-------6-4-------------|
G -------------------------|-----------------------|
D -------------------------|-----------------------|
A -------------------------|-----------------------|
E -------------------------|-----------------------| x2

E -11-------11-11-13----------15-16-15-13----13-15-16-15----|
B ----11-11----------11-11-11-------------16-------------13-|
G ----------------------------------------------------------|
D ----------------------------------------------------------|
A ----------------------------------------------------------|
E ----------------------------------------------------------|

E ----------------------13-16-15-13----15-15-13-12-13-------------|
B -13-15-16-16-15-15-16-------------16----------------13-13-15-15-|
G ----------------------------------------------------------------|
D ----------------------------------------------------------------|
A ----------------------------------------------------------------|
E ----------------------------------------------------------------|

E -11-------11-11-13----------15-16-15-13----13-15-16-15----|
B ----11-11----------11-11-11-------------16-------------13-|
G ----------------------------------------------------------|
D ----------------------------------------------------------|
A ----------------------------------------------------------|
E ----------------------------------------------------------|

E ----------------------13-16-15-13----15-15-13-12-13-15-16-15-|
B -13-15-16-16-15-15-16-------------16-------------------------|
G -------------------------------------------------------------|
D -------------------------------------------------------------|
A -------------------------------------------------------------|
E -------------------------------------------------------------|

E -11-11-10-11-11-10-13-13-11-10-8-10-11-11-10-13-10-8-6-|
B -------------------------------------------------------|
G -------------------------------------------------------|
D -------------------------------------------------------|
A -------------------------------------------------------|
E -------------------------------------------------------|

E -11-11-10-11-11-10-13-13-11-10-11-13-15-16-15-13-11-13-15-|
B ----------------------------------------------------------|
G ----------------------------------------------------------|
D ----------------------------------------------------------|
A ----------------------------------------------------------|
E ----------------------------------------------------------|

E -------------13-13-13-18-16-15-13-15-|
B -13-16-18-16-------------------------|
G -------------------------------------|
D -------------------------------------|
A -------------------------------------|
E -------------------------------------|

E -15-18-20-------------------------|
B ----------18-16-15-15-13-18-16-16-|
G ----------------------------------|
D ----------------------------------|
A ----------------------------------|
E ----------------------------------|

E -------------13-13-13-18-16-15-13-15-|
B -13-16-18-16-------------------------|
G -------------------------------------|
D -------------------------------------|
A -------------------------------------|
E -------------------------------------|

E -15-18-20-------18-18-15-18-18-20-|
B ----------18-16-------------------|
G ----------------------------------|
D ----------------------------------|
A ----------------------------------|
E ----------------------------------|

E -------------13-13-13-18-16-15-13-15-|
B -13-16-18-16-------------------------|
G -------------------------------------|
D -------------------------------------|
A -------------------------------------|
E -------------------------------------|

E -15-18-20-------18-18-15-18-18-20-|
B ----------18-16-------------------|
G ----------------------------------|
D ----------------------------------|
A ----------------------------------|
E ----------------------------------|

This file may be freely distributed,
as long as it remains unedited, and
for non-profit use.
            
Tabs too difficult? Try these video lessons and learn fast.


comments powered by Disqus
↑ Back to top | Tablatures and chords are parodies/interpretations of the original songs. You may use it for private study, scholarship, research or language learning purposes only