» » »

Lord Of The Rings Tabs (ver.4)

Artists:  A B C D E F G H I J K L M N O P Q R S T U V W X Y Z # 

Lord Of The Rings Tabs (ver.4)

Misc Soundtrack
Rating:
0/5 (0 votes)
Tabs too difficult? Try these video lessons and learn fast.
                (Theme)
------------------------The Lord of The Rings Theme------------------------

This version sounds really good with heavy distortion because it's all 
powerchords plus a solo. If you wanted to play this like a song, do the 
intro maybe once or twice, then the chorus palm muted and then open and 
then solo and then chorus again. (Or you can do any order you want)


Intro

e|---------------------------------------------------------------|
B|---------------------------------------------------------------|
G|-------------------------------------------Right after this----|
D|-------------------------------------------you can repeat or---|
A|--------------------5-7-8-8-7-----7-5---3-2----go to the-------|
E|----5-5-5-3-3-3-5-------------8-8-----------------chords-------|
         let this 5 ring

   Chorus
e|---------------------------------------------------------------|
B|---------------------------------------------------------------|
G|-------------------7-9-10-10-9--------9-3--5-4-----------------|
D|----7-7-7-5-5-5-7--7-9-10-10-9-10--10-9-3--5-4-----------------|
A|----7-7-7-5-5-5-7--5-7-8--8--7-10--10-7-5--3-2-----------------|
E|----5-5-5-3-3-3-5--------------8---8---------------------------|
          let the 5 ring
                             You can repeat this as much as you want

   Solo
e|----------------7-9-10-10-9-------9-7---5-4--------------------|
B|---7b--5b--7b---------------10-10-------5-4--------------------|
G|---------------------------------------------------------------|
D|---------------------------------------------------------------|
A|---------------------------------------------------------------|
E|---------------------------------------------------------------|

All these parts follow the same pattern, and once you get it down its really easy

Have fun, and make sure you play this FOR FRODO! :)
            
Tabs too difficult? Try these video lessons and learn fast.


comments powered by Disqus
↑ Back to top | Tablatures and chords are parodies/interpretations of the original songs. You may use it for private study, scholarship, research or language learning purposes only