» » »

Have I Got News For You Tabs (ver.1)

Artists:  A B C D E F G H I J K L M N O P Q R S T U V W X Y Z # 

Have I Got News For You Tabs (ver.1)

Misc Television
Rating:
0/5 (0 votes)

Tabs too difficult? Try these video lessons and learn fast.
                (Theme)
BBC TV THEME
Have I Got News For You
Standard Tuning, 4/4 Time


|----------------|----------------|----------------|----------------|
|----------------|--------------5-|-------5--3-----|----------------|
|-------------5~-|----55--775-57-7|--5-4-5-----54--|----------------|
|775-55-----7---7|-75---75---7----|--------------7-|--7-57-7-5fb----|
|---7--75-57-----|---7------------|----------------|---7------------|
|--------8-------|----------------|----------------|----------------|

|----------------|----------------|----------------|------------------|
|----------------|----------------|----------------|------------------|
|-----------5----|----------------|--------5-55----|6-------7/--------|
|7577-5-5757--75-|7577-5-575--5-75|7577-5-5-7---757|--8-----7/--------|
|------7--------7|------7---7-----|------7---------|----9-6-5/--------|
|----------------|----------------|----------------|------------------|

|----------------|--------------------------|------------1315--------|
|----------------|------------11--13------11|131116151615--15--------|
|5/3-------------|--------1012--------1012--|--------------12--------|
|5/3-------------|10810812------------------|------------------------|
|3/1-------------|--------------------------|------------------------|
|----------------|--------------------------|------------------------|

Should take about 30 seconds
Its in tune and in time and all that jazz so if you dont watch it give it a try anyway.
            
Tabs too difficult? Try these video lessons and learn fast.


comments powered by Disqus
↑ Back to top | Tablatures and chords are parodies/interpretations of the original songs. You may use it for private study, scholarship, research or language learning purposes only