» » »

Nashville - Telescope Tabs (ver.2)

Artists:  A B C D E F G H I J K L M N O P Q R S T U V W X Y Z # 

Nashville - Telescope Tabs (ver.2)

Misc Television
Rating:
0/5 (0 votes)

Tabs too difficult? Try these video lessons and learn fast.
                -------------------------------------------------------------------------------
                          TELESCOPE - Nashville Cast
-------------------------------------------------------------------------------

Tuning: Double Dropped D (DADGBd)

Chords:
C9 x32030
G  5x5430
D  000230

d|----|------------------|------------------|-----------------|
B|----|------------------|------------------|-----------------|
G|----|------------------|------------------|-----------------|
D|----|---3-0-------3----|---3-0-------3----|---3-0-------3---|
A|----|---------0h3------|---------0h3------|---------0h3-----|
D|-3b-|-0-------------3b-|-0-------------3b-|-0---------------|
       \---- Riff A ----/

d|--------------------------|
B|--------------------------|
G|-----5--------------------|
D|-5s7---7s5p3-----3p0------|
A|-------------5p3----------|
D|---------------------3b-0-|
  \-------- Riff B --------/

[verse:]
[Riff A x8 over D chord]
Won't do no good, if you run from me
There ain't no cheatin', schemin' my heart don't see
You left your troubles in my head, in my head
You left your secrets in my bed, in my bed
[tacit]
You're like the cover of a book that's been read, baby
                           [Riff B]
I know what line is coming next, coming next

[chorus:]
C9  G     D
You can't hide from me,
C9             G                   D
There ain't no tricks that you can try on me
C9            G            D
  I know your every move before you even breathe baby
C9                                  G
Thinking you know something I don't know
    [tacit]
But my eyes, my eyes, my eyes are like a telescope

[Riff A x3]
[Riff B]

You're kissing her, when my head is turned
You must be crazy baby, haven't you learned?
You can't deceive me silly child, silly child
I don't believe that pretty smile, pretty smile
My intuition can see for miles and miles baby
Every little sin, and everywhere you've been

You can't hide from me,
There ain't no tricks that you can try on me
I know your every move before you even breathe baby
Thinking you know something I don't know
But my eyes, my eyes, my eyes are like a telescope

[solo]
C9 G D
C9 G D
C9 G D
C9
[Riff A x4]

[tacit]
You left your troubles in my head, in my head
You left your secrets in my bed

[chorus]
You can't hide from me,
There ain't no tricks that you can try on me
I know your every move before you even breathe baby
C9                G                 D
Thinking you know something I don't know
But my eyes

[chorus]
You can't hide from me,
There ain't no tricks that you can try on me
I know your every move before you even breathe baby
C9                G                 D
Thinking you know something I don't know
D                                            [Riff A]
But my eyes, my eyes, my eyes are like a telescope
[Riff A x3]
(my eyes see)
(my eyes see)
(my eyes see) are like a telescope

************************************

| /   slide up
| \   slide down
| h   hammer-on
| p   pull-off
| ~   vibrato
| +   harmonic
| x   Mute note
| b   Bend
| pb  Pre-bend
| br  Bend release
| pbr Pre-bend release
| brb Bend release bend

************************************
            
Tabs too difficult? Try these video lessons and learn fast.




comments powered by Disqus
↑ Back to top | Tablatures and chords are parodies/interpretations of the original songs. You may use it for private study, scholarship, research or language learning purposes only