» » »

Eternally Missed Bass tabs (ver.1)

Artists:  A B C D E F G H I J K L M N O P Q R S T U V W X Y Z # 

Eternally Missed Bass tabs (ver.1)

Muse
Rating:
0/5 (0 votes)

Tabs too difficult? Try these video lessons and learn fast.
                Band: Muse



_______________________________________________________________________________

Intro & Verse
                                                                      X2
G|-------------------------------------------------------------------|
D|----------------------------3-35--3--3--3--35323-0--0--0--0320----o|
A|--0--0--0--03034--5--5--5--5-5--------------------------------3---o|
E|-------------------------------------------------------------------|

Pre-Chorus 
                                                    
G|---------------------------------------------------------------------|
D|----------------------------3-35--3--3--3--35323--0-0-0-0-0-0-0-0-0--|
A|--0--0--0--03034--5--5--5--5-5---------------------------------------|
E|---------------------------------------------------------------------|

Chorus

G|----------------------------------------------------|
D|----------------------------------------------------|
A|-3333333333333333-----------------------------------|
E|------------------3333333333333333-0000000000000000-|


G|---------------------------------------------------------|
D|---------------------------------------------------------|
A|------------------3-5555555555555555---------------------|
E|-1111111111111111--------------------3333333333333333-5--|

Verse 2
                                                                      X3
G|-------------------------------------------------------------------|
D|----------------------------3-35--3--3--3--35323-0--0--0--0320----o|
A|--0--0--0--03034--5--5--5--5-5--------------------------------3---o|
E|-------------------------------------------------------------------|

Pre-Chorus 2
                                                    
G|---------------------------------------------------------------------|
D|----------------------------3-35--3--3--3--35323--0-0-0-0-0-0-0-0-0--|
A|--0--0--0--03034--5--5--5--5-5---------------------------------------|
E|---------------------------------------------------------------------|

Chorus 2

G|----------------------------------------------------|
D|----------------------------------------------------|
A|-3333333333333333-----------------------------------|
E|------------------3333333333333333-0000000000000000-|


G|---------------------------------------------------------|
D|---------------------------------------------------------|
A|------------------3-5555555555555555---------------------|
E|-1111111111111111--------------------3333333333333333-5--|

Verse 3
                                                                     
G|-------------------------------------------------------------------|
D|----------------------------3-35--3--3--3--35323-0--0--0--0320----o|
A|--0--0--0--03034--5--5--5--5-5--------------------------------3---o|
E|-------------------------------------------------------------------|
                                                                     
G|----------------------------------------------------------75-5-----|
D|----------------------------3-35--3--3--3--35323-0--0--0----7-753--|
A|--0--0--0--03034--5--5--5--5-5-------------------------------------|
E|-------------------------------------------------------------------|

Interlude (play this very softly)

G|-------------------------------------------------------------------|
D|----------------------------3-35--3--3--3--35323-0--0--0--0320----o|
A|--0--0--0--03034--5--5--5--5-5--------------------------------3---o|
E|-------------------------------------------------------------------|
                                                               
G|-------------------------------------------------------------------|
D|----------------------------3-35--3--3--3--35323-0--0--0----------o|
A|--0--0--0--03034--5--5--5--5-5---------------------------0-3333---o|
E|-------------------------------------------------------------------|

G|----------------------------------------------------|
D|-----------------------------------3333333333333333-|
A|-0000000000000000-5555555555555555------------------|
E|----------------------------------------------------|

G|-------------------------------------------------------------------------------------|
D|-5555555555555555-7777777777777777---------------------------------------------------|
A|-----------------------------------8888888888888888-10101010101010101010101010101010-|
E|-------------------------------------------------------------------------------------|

G|---------------------------------------|
D|---------------------------------------|
A|-10101010101010101010101010101010------|
E|----------------------------------10\--|

Chorus 3

G|----------------------------------------------------|
D|----------------------------------------------------|
A|-3333333333333333-----------------------------------|
E|------------------3333333333333333-0000000000000000-|
                                                            X2
G|---------------------------------------------------------|
D|---------------------------------------------------------|
A|------------------3-5555555555555555---------------------|
E|-1111111111111111--------------------3333333333333333-5--|
            
Tabs too difficult? Try these video lessons and learn fast.




comments powered by Disqus
↑ Back to top | Tablatures and chords are parodies/interpretations of the original songs. You may use it for private study, scholarship, research or language learning purposes only