>
 >
Glorious 2

Glorious 2 Guitar Tabs

Muse - Glorious 2 chords, tabs, tablatures, lyrics

Guitar lessons | Add/correct | Request | Top 50 tabs Artists:  A B C D E F G H I J K L M N O P Q R S T U V W X Y Z 0-9

Glorious 2 Guitar Tabs – Muse

CD, Sheet music, Poster

Do you like Glorious 2? Share with your friends now
Bass TabsBass Tabs v2Bass Tabs v3ChordsTabsTabs v2Tabs v3Tabs v4Ukulele
-----------------------------------------------------------------------------
                             Glorious- Muse
-----------------------------------------------------------------------------

i dont think i got the beginning or end right so if you here something else play it
|-----------------------------------|
|-12h0-14h0-16h0-17b0-16h0-14h12h11-|
|-----------------------------------|  repeat until bass comes in
|-----------------------------------|
|-----------------------------------|
|-----------------------------------|

|-0-------0-------4-------4-|
|-0-------0-------4-------4-|
|-1-------1-------4-------4-|  x2
|-2-------2-------6-------6-|
|-2-------2-------6-------6-|
|-0-------0-------4-------4-|
                                   _______________
|---------------------------------|               \
|---------------------------------|                \
|---------------------------------|                 \
|-9-----8-----9-----11----9---8---|                  \
|-7-7-7-7-7-7-7-7-7-7-7-7-7-7-7-7-|                   \
|---------------------------------|  x2                \
                                                        \
                                                        |  x2
|-------------------------------------------------|  x2 /
|-------------------------------------------------|    /
|-------------------------------------------------|   /
|-9--------8--------9--------11-------9-----8-----|  /
|-11-11-11-11-11-11-11-11-11-11-11-11-11-11-11-11-| /
|-------------------------------------------------|/

|-0-------0-------4-------4-|
|-0-------0-------4-------4-|
|-1-------1-------4-------4-|  x2
|-2-------2-------6-------6-|
|-2-------2-------6-------6-|
|-0-------0-------4-------4-|

|---------------------------------|               
|---------------------------------|                
|---------------------------------|                 
|-9-----8-----9-----11----9---8---|                  
|---------------------------------|                   
|-9-9-9-9-9-9-9-9-9-9-9-9-9-9-9-9-|  x2

|---------------------------------|               
|---------------------------------|                
|---------------------------------|                 
|-9-----8-----9-----11----9---8---|                  
|-7-7-7-7-7-7-7-7-7-7-7-7-7-7-7-7-|                   
|---------------------------------|  x2

|-------------------------------------------------| 
|-------------------------------------------------|    
|-------------------------------------------------|  x2 
|-9--------8--------9--------11-------9-----8-----|  
|-11-11-11-11-11-11-11-11-11-11-11-11-11-11-11-11-| 
|-------------------------------------------------|

|---------------------------------|               
|---------------------------------|                
|---------------------------------|                 
|-9-----8-----9-----11----9---8---|                  
|-9-9-9-9-9-9-9-9-9-9-9-9-9-9-9-9-|                   
|---------------------------------|

|---------------------------------|
|---------------------------------|
|---------------------------------|
|-9-----8-----9-----11b-----------|
|-9-9-9-9-9-9-9-9-9---------------|
|---------------------------------|

strum 16th notes (listen to the song to get the changes down)
|-----------|
|-----------|
|-8-9-10-11-|  x2
|-----------|
|-6-7-8--9--|
|-----------|

|-----------------------------------12-13-14-15-15-14-12-11-15-16-18-19-19--|
|-----------------------12-14-15-16-----------------------------------------|
|-8-9-10-11-12-13-14-15-------------9--10-11-12-12-11-9--8--12-13-15-16-16--|
|-----------------------9--11-12-13-----------------------------------------|
|-6-7-8--9--10-11-12-13-----------------------------------------------------|
|---------------------------------------------------------------------------|

|-18-16-11-14-14-12-|
|-------------------|
|-15-13-8--11-11-9--|
|-------------------|
|-------------------|
|-------------------|
                                   _______________
|---------------------------------|               \
|---------------------------------|                \
|---------------------------------|                 \
|-9-----8-----9-----11----9---8---|                  \
|-7-7-7-7-7-7-7-7-7-7-7-7-7-7-7-7-|                   \
|---------------------------------|  x2                \
                                                        \
                                                        |  x2
|-------------------------------------------------|  x2 /
|-------------------------------------------------|    /
|-------------------------------------------------|   /
|-9--------8--------9--------11-------9-----8-----|  /
|-11-11-11-11-11-11-11-11-11-11-11-11-11-11-11-11-| /
|-------------------------------------------------|/

|---------------------------------|               
|---------------------------------|                
|---------------------------------|                 
|-9-----8-----9-----11----9---8---|                  
|---------------------------------|                   
|-9-9-9-9-9-9-9-9-9-9-9-9-9-9-9-9-|  x2

|---------------------------------|               
|---------------------------------|                
|---------------------------------|                 
|-9-----8-----9-----11----9---8---|                  
|-7-7-7-7-7-7-7-7-7-7-7-7-7-7-7-7-|                   
|---------------------------------|  x2

|-------------------------------------------------| 
|-------------------------------------------------|    
|-------------------------------------------------|  x2 
|-9--------8--------9--------11-------9-----8-----|  
|-11-11-11-11-11-11-11-11-11-11-11-11-11-11-11-11-| 
|-------------------------------------------------|

|---------------------------------|               
|---------------------------------|                
|---------------------------------|                 
|-9-----8-----9-----11----9---8---|                  
|-9-9-9-9-9-9-9-9-9-9-9-9-9-9-9-9-|                   
|---------------------------------|

|---------------------------------|
|---------------------------------|
|---------------------------------|
|-9-----8-----9-----11b-----------|
|-9-9-9-9-9-9-9-9-9---------------|
|---------------------------------|

strum 16th notes
|-----------------------------------12-13-14-15-15-14-12-11-15-16-18-19-19--|
|-----------------------12-14-15-16-----------------------------------------|
|-8-9-10-11-12-13-14-15-------------9--10-11-12-12-11-9--8--12-13-15-16-16--|
|-----------------------9--11-12-13-----------------------------------------|
|-6-7-8--9--10-11-12-13-----------------------------------------------------|
|---------------------------------------------------------------------------|

|-18-16-11-14-14-12-|
|-------------------|
|-15-13-8--11-11-9--|
|-------------------|
|-------------------|
|-------------------|

|---------------------------------|               
|---------------------------------|                
|---------------------------------|                 
|-9-----8-----9-----11----9---8---|                  
|-7-7-7-7-7-7-7-7-7-7-7-7-7-7-7-7-|                   
|---------------------------------|

|---------------------------------|
|---------------------------------|
|---------------------------------|
|-9-----8-----9-----11----9---11--|
|-7-7-7-7-7-7-7-7-7-7-7-7-7-7-7-7-|
|---------------------------------|

|---------------------------------|
|---------------------------------|
|---------------------------------|
|-11----9-----11----13----11--9---|
|-9-9-9-9-9-9-9-9-9-9-9-9-9-9-9-9-|
|---------------------------------|

|---------------------------------|
|---------------------------------|
|---------------------------------|
|-11----9-----11----13----11--13--|
|-9-9-9-9-9-9-9-9-9-9-9-9-9-9-9-9-|
|---------------------------------|

|---------------------------------|
|---------------------------------|
|---------------------------------|  x2
|-14----13----14----13----11--13--|
|---------------------------------|
|-9-9-9-9-9-9-9-9-9-9-9-9-9-9-9-9-|

|-------------------------------------------------|
|-------------------------------------------------|
|-------------------------------------------------|  x2
|-14-------13-------14-------16-------14----13----|
|-------------------------------------------------|
|-12-12-12-12-12-12-12-12-12-12-12-12-12-12-12-12-|

|-------------------------------------------------|
|-------------------------------------------------|
|-------------------------------------------------|  x2
|-14-------13-------14-------16-------14----13----|
|-------------------------------------------------|
|-14-14-14-14-14-14-14-14-14-14-14-14-14-14-14-14-|

|----|
|----|
|----|  (hold the notes)
|-14-|
|-14-|
|----|

|-------------------------|
|-12-14-16-17-16-14h12h11-|
|-------------------------|  x8 (slow down as you near the end of 
|-------------------------|      the song)
|-------------------------|
|-------------------------|

|-9/11-|
|-12---|
|------|
|------|
|------|
|------|





Comments


Popular Muse tabs & chords
Butterflies And Hurricanes Live Bass Tabs
Fury 3 Bass Tabs
Map Of The Problematique 2 Bass Tabs
Recess 2 Bass Tabs
Cant Take My Eyes Off You 2 Tabs
Guiding Light 4 Tabs
Hyper Music Tabs
Interlude Tabs
Knights Of Cydonia Live 3 Tabs
I Belong To You Ukulele


Song lyrics



↑ Back to top | Tablatures and chords are parodies/interpretations of the original songs. You may use it for private study, scholarship, research or language learning purposes only
© 2014 AZChords.com Contact us | Privacy policy | DMCA | Add/correct tabs | Request tabs | Top 50 tabs