» » »

Guiding Light Tabs (ver.3)

Artists:  A B C D E F G H I J K L M N O P Q R S T U V W X Y Z # 

Guiding Light Tabs (ver.3)

Muse
Rating:
0/5 (0 votes)

Tabs too difficult? Try these video lessons and learn fast.
                this is a rough tab for the end guitar part of the 30 second clip for guiding light by 
on the resistance album.

effects: fuzz distortion
                                p.m.------------------|
e|----------------------------------------------------|
B|----------------------------------------------------|
G|----------------------------------------------------|
D|----------------------------------------------------|
A|----------------------------------------------------|
E|--8---12----15---19---19b--17-----13--12-10----8-7--|

that is my rough version of it, probably not how its actualy played.
i couldnt really figure out the bit after but i imagine it to be something like this:

e|--------------------------------------------------|
B|--------------------------------------------------|
G|-----------------------------5~~~-----------------|
D|-------------------3--5--7------------------------|
A|----------3--5--7---------------------------------|
E|-3--5--7------------------------------------------|

thats probably not 100% as i say its just a rough idea.
            
Tabs too difficult? Try these video lessons and learn fast.


comments powered by Disqus
↑ Back to top | Tablatures and chords are parodies/interpretations of the original songs. You may use it for private study, scholarship, research or language learning purposes only