» » »

Haarp Tabs (ver.1)

Artists:  A B C D E F G H I J K L M N O P Q R S T U V W X Y Z # 

Haarp Tabs (ver.1)

Muse
Rating:
0/5 (0 votes)

Tabs too difficult? Try these video lessons and learn fast.
                this is the riff just after Stockholm Syndrome, if you don't have an internal fuzz pedal
or a MIDI strip, you'll have to improvise. I use ernie ball, super heavy, guage strings.
I know Matt hits just the D string, but I find that if you hit all three strings
(DAD), it has a much heaver sound.

(h) Hammer On  (p) Pull Off  (b) Bend (v) Vibrato
Tuning: Drop D

E|-----------------------------------------------------------------------------------|
B|--14--h15p14h15p14h15p14-----continue-----scale--------turn toggle----turn stab----|
G|------------------------------using------improv--2(v)--for fuzz------on fuzz-------|
D|-----------------------------MIDI Strip----then---------pedal to------pedal--------|
A|-----------------------------------------------------on position--- 25%------------|
D|-----------------------------------------------------------------------------------|

then

E|---------------------------------------------------------------------------------|
B|-----------------turn stab-----------------turn stab-----------------turn stab---|
G|-----------------on fuzz------------------on fuzz------------------on fuzz-------|
D|--0--0--3-0-0----pedal-----0--0--3-0-0----pedal-----0--0--3-0-0---pedal----------|
A|--0--0--3-0-0----25%------0--0--3-0-0----50%------0--0--3-0-0---75%--------------|
D|--0--0--3-0-0-------------0--0--3-0-0-------------0--0--3-0-0--------------------|

E|--------------------------------------------------------------------------|
B|--------------------------------------------------------------------------|
G|--------------------------------------------------------------------------|
D|--0--0--3-0-0---12-12-12-12-12-12-12--0--0--3-0-0---12-12-12-12-12-12-12--|
A|--0--0--3-0-0---12-12-12-12-12-12-12--0--0--3-0-0---12-12-12-12-12-12-12--|
D|--0--0--3-0-0---12-12-12-12-12-12-12--0--0--3-0-0---12-12-12-12-12-12-12--|

repeat  x4
then

E|------------------------ ---------|
B|-------------------------- -------|
G|----------------------------------|
D|--0--0--3-0-3(b)------------------|
A|--0--0--3-0-3(b)--1/2 step--------|
D|--0--0--3-0-3(b)------------------|

E|---------------------------------------------------x-x-x-x-x-x-x-x-x-x-x----|
B|---------------------------------------------------x-x-x-x-x-x-x-x-x-x-x----|
G|---------------------------------------------------x-x-x-x-x-x-x-x-x-x-x----|
D|--0-3-0-5-0-3-0-0-3-0---------------0-3-0-5-0-3-0--x-x-x-x-x-x-x-x-x-x-x----|
A|-----------------------2*-2*-2*-2*------------------x-x-x-x-x-x-x-x-x-x-x---|
D|---------------------------------------------------x-x-x-x-x-x-x-x-x-x-x----|

E|----------------------------------------------------|
B|----------------------------------------------------|
G|----------------------------------------------------|
D|--0-3-0-5-0-3-0-0-3-0-6-6-0-3-0-5-0-3---------------|
A|------------------------------------------full-- ---|
D|--------------------------------------3(b)-step-----|

E|-------------------------------------------------------------x- I-x----------|
B|-------------------------------------------------------------x-M-x-----------|
G|-------------------------------------------------------------x-P-x-----------|
D|--0--3--0--5--0--3--0--0--3--0--6--6--0--3--0--5--0--3--0----x-R-x-----------|
A|--0--3--0--5--0--3--0--0--3--0--6--6--0--3--0--5--0--3--0----x-O-x------ ----|
D|--0--3--0--5--0--3--0--0--3--0--6--6--0--3--0--5--0--3--0----x-V-x---- -- ---|

repeat 4x
then

E|--------------------------------|
B|--------------------------------|
G|------------------------------ -|
D|--0--3--0--5--0--3------ 0------|
A|--0--3--0--5--0--3-hold--0------|
D|--0--3--0--5--0--3------ 0------|

the rest is pretty much improvisation and detuning.

E|---------x-I--x---------x-I--x--------x-I-x----------x-I-x-------------------|
B|---------x-M-x---------x-M-x--------x-M-x---------x-M-x----------------------|
G|---------x-P-x---------x-P-x---------x-P-x---------x-P-x---------------------|
D|--0-0-0--x-R-x--0-0-0--x-R-x--0-0-0--x-R-x--0-0-0--x-R-x---------------------|
A|--0-0-0--x-O-x--0-0-0--x-O-x--0-0-0--x-O-x-0-0-0--x-O-x----------------------|
E|--0-0-0--x-V-x--0-0-0--x-V-x--0-0-0--x-V-x--0-0-0--x-V-x---------------------|

enjoi.


-eARL
            
Tabs too difficult? Try these video lessons and learn fast.




comments powered by Disqus
↑ Back to top | Tablatures and chords are parodies/interpretations of the original songs. You may use it for private study, scholarship, research or language learning purposes only