» » »

Host Bass tabs (ver.4)

Artists:  A B C D E F G H I J K L M N O P Q R S T U V W X Y Z # 

Host Bass tabs (ver.4)

Muse
Rating:
0/5 (0 votes)

Tabs too difficult? Try these video lessons and learn fast.
                Band: Muse
Bassist: Chris Wolstenholme
Tuning: Standard

No bass until 1:10

Verse:

G|-------------------|
D|-------------------|
A|0-22-3-22-0---0-00-|
E|------------0------| x2

G|-----------------------|----------------|
D|-----------------------|----------------|
A|3-7-5-55-0-00-0--0-002-|3-7-5-55-0-00-0-|
E|-----------------------|----------------|

Chorus:

G|--------|--------|--------|--------|
D|--------|--------|--------|--------|
A|33333333|--------|--------|--------|
E|--------|00000000|11111111|33333333|

G|-------|-------|-------|-------|
D|-------|-------|-------|-------|
A|3-3-3-3|-------|-------|-------|
E|-------|0-0-0-0|1-1-1-1|3-3-3-3|x7


G|-------|-------|-------|-------|
D|-------|-------|-------|-------|
A|0~-----|-------|-------|2/7----|
E|-------|-------|-------|-------|

G|------------------------|
D|7-9-10-12-14-14\2-7--77-|
A|------------------------|
E|------------------------|

G|--------|--------|--------|--------|--------|--------|
D|--------|--------|--------|--------|--------|--------|
A|00000000|22222222|33333333|22222222|00000000|--------|
E|--------|--------|--------|--------|--------|00000000|

It's a guitar part, but you can    --|--------|--------| 
try it for fun. It sounds funy.    --|--------|--------|
                                   22|0000-0--|--------|
                                   --|------31|00000000|
G|--------|---------|
D|--------|---------|
A|00002222|333355555|
E|--------|---------|

G|--------|--------|--------|--------|
D|--------|--------|--------|--------|
A|00000000|22222222|33333333|55555555|
E|--------|--------|--------|--------|

G|--------|--------|--------|--------|--------|
D|--------|--------|--------|--------|--------|
A|7~------|--------|0~------|10h12~--|0~------|
E|--------|0~------|--------|--------|--------|

Hope that You'll find this tab useful. Please rate and check out other

/  slide up
\  slide down
h  hammer-on
p  pull-off
~  let ring
            
Tabs too difficult? Try these video lessons and learn fast.


comments powered by Disqus
↑ Back to top | Tablatures and chords are parodies/interpretations of the original songs. You may use it for private study, scholarship, research or language learning purposes only