» » »

Muscle Museum Bass tabs (ver.3)

Artists:  A B C D E F G H I J K L M N O P Q R S T U V W X Y Z # 

Muscle Museum Bass tabs (ver.3)

Muse
Rating:
0/5 (0 votes)

Tabs too difficult? Try these video lessons and learn fast.
                Muscle Museum - Muse

Hey, bass tab for Muscle Museum, hope this is useful :-)

INTRO
The intro is made up entirely of quavers (eight notes), walking along F#m, C# and F#
then climbing down and up Bm.

|----------------|----------------|
|-4---4---4---4--|-4---4---4---4--|
|---4---4---4---4|---4---4---4---4|
|----------------|----------------| X1

|----------------|----------------|---------------6|-7-4------------|
|-4---4---4---4--|----------------|-4---4---4---4--|-----4-0---0-2-3|
|---4---4---4---4|-4---4---4---4--|---4---4---4----|---------2------|
|----------------|---4---4---4---4|----------------|----------------| X2

FIRST VERSE
follows a similar pattern to the intro

|----------------|----------------|---------------6|-7-4------------|
|-4---4---4---4--|----------------|-4---4---4---4--|-----4-0---0-2-3|
|---4---4---4---4|-4---4---4---4--|---4---4---4----|---------2------|
|----------------|---4---4---4---4|----------------|----------------| X4

BRIDGE
The first two measures both have a semiquaver-semiquaver-quaver
(sixteenth-sixteenth-eight notes) for the first beat then rest for the other three, then 
the third measure is
all in semiquavers (sixteenth notes). The fourth and final measure is semiquavers for 
the first three beats, then a crotchet (quarter note) for beat 4. On measure four it reads
'12' and not '1' and '2'.

|-----------------|-----------------|----------------|
|-----------------|-----------------|----------------|
|-----------------|-----------------|5555555555555555|
|22-2-------------|44-4-------------|----------------|

|----------------------------|
|/121212121212121212121212---|
|--------------------------9-|
|----------------------------|

FIRST CHORUS
The first chorus is a 12 measure part. I will write note durations under the tab to save
time. C stands for crotchet or quarter note, Q stands for quaver or eighth note and S
stands for semiquaver or sixteenth note.

|-----------------|----------------|----------------|----------------|
|-----------------|----------------|----------------|----------------|
|-----------------|444-4-4-444-4-4-|----------------|222-2---2-0---0-|
|\222-2---222-2---|----------------|222-2---222-2---|------------4---|

  SSQ C   SSQ C   |SSQ Q Q SSQ Q Q |SSQ C   SSQ C   |SSQ C   Q Q Q Q |


|----------------|----------------|----------------|----------------|
|----------------|----------------|----------------|------------2---|
|----------------|444-4-4-444-4-4-|----------------|222-2---222---22|
|2-2-2---222-2---|----------------|222-2---222-2---|----------------|

 Q Q C   SSQ C   |SSQ Q Q SSQ Q Q |SSQ C   SSQ C   |SSQ C   SSQ Q SS|

|----------------|----------------|----------------|----------------|
|----------------|----------------|4---4---4---4---|4---4---4---4---|
|----------------|----------------|--4---4---4---4-|--4---4---4---4-|
|0-0-0-0-0-0-0-0-|1-1-1-1-11111111|----------------|----------------|

 Q Q Q Q Q Q Q Q |Q Q Q Q SSSSSSSS|Q Q Q Q Q Q Q Q |Q Q Q Q Q Q Q Q |

SECOND VERSE
The same as verse one, but repeated three times

|----------------|----------------|---------------6|-7-4------------|
|-4---4---4---4--|----------------|-4---4---4---4--|-----4-0---0-2-3|
|---4---4---4---4|-4---4---4---4--|---4---4---4----|---------2------|
|----------------|---4---4---4---4|----------------|----------------| X3

SECOND BRIDGE
The same as the first bridge, except you can hear a slide from the last note down the neck

|-----------------|-----------------|----------------|
|-----------------|-----------------|----------------|
|-----------------|-----------------|5555555555555555|
|22-2-------------|44-4-------------|----------------|

|----------------------------|
|/121212121212121212121212---|
|--------------------------9\|
|----------------------------|

SECOND CHORUS AND FINAL RIFF

The second chorus is exactly the same as the first eight bars of chorus one. On the
final riff, assume any note which I have not written the duration for to be a 
quaver/eighth note.

|-----------------|----------------|----------------|----------------|
|-----------------|----------------|----------------|----------------|
|-----------------|444-4-4-444-4-4-|----------------|222-2---2-0---0-|
|\222-2---222-2---|----------------|222-2---222-2---|------------4---|

  SSQ C   SSQ C   |SSQ Q Q SSQ Q Q |SSQ C   SSQ C   |SSQ C   Q Q Q Q |


|----------------|----------------|----------------|----------------|
|----------------|----------------|----------------|------------2---|
|----------------|444-4-4-444-4-4-|----------------|222-2---222---22|
|2-2-2---222-2---|----------------|222-2---222-2---|----------------|

 Q Q C   SSQ C   |SSQ Q Q SSQ Q Q |SSQ C   SSQ C   |SSQ C   SSQ Q SS|

|----------------|----------------|----------------|----------------|
|----------------|----------------|----------------|----------------|
|----------------|----------------|----------------|5-5-5-5-5-5-5-5\|
|0-0-0-0-0-0-0-0-|1-1-1-1-1-1-1-1-|2-2-2-2-0-0-0-0-|----------------|

|----------------|----------------|----------------|----------------|
|----------------|----------------|----------------|----------------|
|----------------|----------------|----------------|5-5-5-5-5-5-5/X\|
|0-0-0-0-0-0-0-0-|1-1-1-1-1-1-1-1-|2-2-2-2-0-0-0-0-|----------------|
                                                    Q Q Q Q Q Q Q/Q\
|----------------|----------------|----------------|----------------|
|----------------|----------------|----------------|----------------|
|----------------|----------------|--------222-0---|--------222-0---|
|5-5-5-5-5-5-5-5-|4-4-4-4-4-4-4-4-|2-2-2-2-------4-|2-2-2-2-------4-|
                                  |Q Q Q Q SSQ Q Q |Q Q Q Q SSQ Q Q |

|----------------|----------------|----------------|
|----------------|----------------|----------------|
|------0-222-0---|------0-222-0---|----------------|
|2-2-4---------4-|2-2-4---------4-|2---------------|
 Q Q Q Q SSQ Q Q |Q Q Q Q SSQ Q Q |hold for four beats
            
Tabs too difficult? Try these video lessons and learn fast.


comments powered by Disqus
↑ Back to top | Tablatures and chords are parodies/interpretations of the original songs. You may use it for private study, scholarship, research or language learning purposes only