» » »

Neutron Star Collision Tabs (ver.4)

Artists:  A B C D E F G H I J K L M N O P Q R S T U V W X Y Z # 

Neutron Star Collision Tabs (ver.4)

Muse
Rating:
0/5 (0 votes)

Tabs too difficult? Try these video lessons and learn fast.
                This is my first tab attempt, so it may be a bit sketchy.
Also, the solo is a bit off, as I'm not that good at guessing by ear :P

Anyway, enjoy! A pretty simple tab for an awesome song.

Song structure:

Intro
Chorus
Solo
Chorus

Note: Bellamy doesn't play guitar during the verse. 
Note 2: I made this on Guitar Pro, so ignore the note duration. Work it out by ear 
- it's not exactly difficult.


INTRO

     H.           E  E     W                 
E||---------------------|-------------------|
B||---------------------|-------------------|
G||---------------------|-------------------|
D||---------------------|-------------------|
A||---------------------|-------------------|
E||--2------------L--4--|--5----------------|


  H.           S S. S.    W                 
-----------------------|-------------------|
-----------------------|-------------------|
-----------------------|-------------------|
-----------------------|-------------------|
--4------------L-3--1--|--0----------------|
-----------------------|-------------------|


  H.           E  E     W                 
---------------------|-------------------|
---------------------|-------------------|
---------------------|-------------------|
---------------------|-------------------|
---------------------|-------------------|
--2------------L--4--|--5----------------|


  Q.     E  H           W                 
---------------------|-------------------|
---------------------|-------------------|
---------------------|-------------------|
--8------6--6--------|--L----------------|
---------------------|-------------------|
---------------------|-------------------|


CHORUS


  E  E  E  E  E  E  E  E     E  E  E  E  E  E  E  E   
--------------------------|--------------------------|
--------------------------|--------------------------|
--------------------------|--------------------------|
--4--4--4--4--4--4--4--6--|--7--7--7--7--7--7--7--7--|
--4--4--4--4--4--4--4--6--|--7--7--7--7--7--7--7--7--|
--2--2--2--2--2--2--2--4--|--5--5--5--5--5--5--5--5--|


  E  E  E  E  E  E  E  E   
--------------------------|
--------------------------|
--6--6--6--6--6--6--6--8--|
--6--6--6--6--6--6--6--8--|
--4--4--4--4--4--4--4--6--|
--------------------------|


   E   E   E   E   E   E   E   E   
----------------------------------|
----------------------------------|
--10--10--10--10--10--10--10--10--|
--10--10--10--10--10--10--10--10--|
---8---8---8---8---8---8---8---8--|
----------------------------------|


  E  E  E  E  E  E  E  E     E  E  E  E  E  E  E  E   
--------------------------|--------------------------|
--------------------------|--------------------------|
--------------------------|--------------------------|
--4--4--4--4--4--4--4--6--|--7--7--7--7--7--7--7--7--|
--4--4--4--4--4--4--4--6--|--7--7--7--7--7--7--7--7--|
--2--2--2--2--2--2--2--4--|--5--5--5--5--5--5--5--5--|


  E  E  E  E  E  E  E  E   
--------------------------|
--------------------------|
--6--6--6--6--6--6--6--8--|
--6--6--6--6--6--6--6--8--|
--4--4--4--4--4--4--4--6--|
--------------------------|


   E   E   E   E   E   E   E   E   
----------------------------------|
----------------------------------|
--10--10--10--10--10--10--10--10--|
--10--10--10--10--10--10--10--10--|
---8---8---8---8---8---8---8---8--|
----------------------------------|


  E  E  E  E  E  E  E  E     E  E  E  E  E  E  E  E   
--------------------------|--------------------------|
--------------------------|--------------------------|
--------------------------|--------------------------|
--4--4--4--4--4--4--4--6--|--7--7--7--7--7--7--7--7--|
--4--4--4--4--4--4--4--6--|--7--7--7--7--7--7--7--7--|
--2--2--2--2--2--2--2--4--|--5--5--5--5--5--5--5--5--|


  E  E  E  E  E  E  E  E   
--------------------------|
--------------------------|
--6--6--6--6--6--6--6--8--|
--6--6--6--6--6--6--6--8--|
--4--4--4--4--4--4--4--6--|
--------------------------|


   E   E   E   E   E   E   E   E   
----------------------------------|
----------------------------------|
--10--10--10--10--10--10--10--10--|
--10--10--10--10--10--10--10--10--|
---8---8---8---8---8---8---8---8--|
----------------------------------|


  E  E  E  E  E  E  E  E     E  E  E  E  E  E  E  E   
--------------------------|--------------------------|
--------------------------|--------------------------|
--------------------------|--------------------------|
--4--4--4--4--4--4--4--6--|--7--7--7--7--7--7--7--7--|
--4--4--4--4--4--4--4--6--|--7--7--7--7--7--7--7--7--|
--2--2--2--2--2--2--2--4--|--5--5--5--5--5--5--5--5--|


  Q.     E  H           W                 
---------------------|-------------------|
---------------------|-------------------|
---------------------|-------------------|
--8------6--6--------|--L----------------|
---------------------|-------------------|
---------------------|-------------------|

SOLO


   Q    Q    Q    Q       Q    Q    Q    Q      
--/9----9----9----9----|--8----8----4----4S----|
-----------------------|-----------------------|
-----------------------|-----------------------|
-----------------------|-----------------------|
-----------------------|-----------------------|
-----------------------|-----------------------|


  Q    Q    Q    Q       H        H         
--6----4----2----1----|--4--------2--------|
----------------------|--------------------|
----------------------|--------------------|
----------------------|--------------------|
----------------------|--------------------|
----------------------|--------------------|


  Q    Q    Q     Q        E    E    Q     Q    Q     
-------8----9----13----|--13h--14p--13p----8----9----|
--4--------------------|-----------------------------|
-----------------------|-----------------------------|
-----------------------|-----------------------------|
-----------------------|-----------------------------|
-----------------------|-----------------------------|


  Q    Q     Q     Q        Q    H        Q      
--8----9----11----13b----|--L----4-------------||
-------------------------|---------------------||
-------------------------|---------------------||
-------------------------|---------------------||
-------------------------|---------------------||
-------------------------|---------------------||




Duration Legend
---------------
W - whole
H - half
Q - quarter
E - 8th
S - 16th
T - 32nd
X - 64th
. - note dotted
|-n-|  - n-tuplets


Tablature Legend
----------------
L - tied note
x - dead note
g - grace note
(n) - ghost note
> - accentuded note
NH - natural harmonic
AH - artificial harmonic
TH - tapped harmonic
SH - semi harmonic
PH - pitch harmonic
h - hammer on
p - pull off
b - bend
br - bendRelease
pb - preBend
pbr - preBendRelease
brb - bendReleaseBend
\n/ - tremolo bar dip
\n - tremolo bar dive
-/n - tremolo bar Release up
/n\ - tremolo bar inverted dip
/n - tremolo bar return
-\n - tremolo bar Release down
S - shift slide
s - legato slide
/ -  slide into from below or out of upwards
\ -  slide into from above or out of downwards
~ - vibrato
W - wide vibrato
tr - trill
TP - tremolo picking
T - tapping
S - slap
P - pop
< - fade in
^ - brush up
v - brush down
            
Tabs too difficult? Try these video lessons and learn fast.


comments powered by Disqus
↑ Back to top | Tablatures and chords are parodies/interpretations of the original songs. You may use it for private study, scholarship, research or language learning purposes only