» » »

Control Tabs (ver.1)

Artists:  A B C D E F G H I J K L M N O P Q R S T U V W X Y Z # 

Control Tabs (ver.1)

Mute Math
Rating:
5/5 (4 votes)

Tabs too difficult? Try these video lessons and learn fast.
                Hey everybody! This is my first tab. I believe that it is 90-95% accurate. Have fun!

key:
h=Harmonic

Intro riff(compression effect+ delay)x4
e---------h-------------------------|
b-6-6-7-----------------------------|
g-----------------------------------|
d-----------------------------------|
a-----------------------------------|
e-----------------------------------|

Intro (Pre-Chorus) riff 2

e-----------------------------------|
b-----------------------------------|
g-----------------------------------|
d--6-8--6-8--6-8--6-8-6-------------|
a-----------------------8-9---------|
e-----------------------------------|

Verse riff 1

e-----------------------------------|
b-6-6-7-7---------------------------|
g-------------8-8-8-8-8-------------|
d---------8-8-----------------------|
a-----------------------------------|
e-----------------------------------|

Verse riff 2

e-----------------------------------|
b-6---------4-6---------------------|
g-------6-6-------------------------|
d-----------------------------------|
a-----------------------------------|
e-----------------------------------|

Chorus riff
              3x
e-----------------------------------|
b-----------------------------------|
g---8--6--4------6--4--3------------|
d-6-----------6---------------------|
a-----------------------------------|
e-----------------------------------|

Bridge riff 1(alt chorus)
  7x  7x  14x
e-11--9---4-------------------------|
b-12--9---4-------------------------|
g-13--11--6-------------------------|
d-----------------------------------|
a-----------------------------------|
e-----------------------------------|

Bridge riff 2
  6x  2x  8x 10x
e-11--11-----9-----------------------|
b-12--14--9--9-----------------------|
g-13--13--11-11----------------------|
d------------------------------------|
a------------------------------------|
e------------------------------------|
            
Tabs too difficult? Try these video lessons and learn fast.


comments powered by Disqus
↑ Back to top | Tablatures and chords are parodies/interpretations of the original songs. You may use it for private study, scholarship, research or language learning purposes only