» » »

They Dont Know Tabs (ver.1)

Artists:  A B C D E F G H I J K L M N O P Q R S T U V W X Y Z # 

They Dont Know Tabs (ver.1)

Nailpin
Rating:
0/5 (0 votes)

Tabs too difficult? Try these video lessons and learn fast.
                -----------------------------------------------------------------------------
                         They don't know - Nailpin
-----------------------------------------------------------------------------


solo 1
e|------9----------------9--------------|
B|---9----9--9-7------9----9--9-7-------|
G|----------------6~---------------6~---|
D|--------------------------------------|
A|--------------------------------------|
E|--------------------------------------|

solo 2
e|---9----9h11p9-6-7-6---------------6-----------------------------------|
B|-----9---------------9-7--6-7-9---------6h7p6-----4-6-4---7-6-4--------|
G|--------------------------------6----6---------6--------6-------6-4~---|
D|-----------------------------------------------------------------------|
A|-----------------------------------------------------------------------|
E|-----------------------------------------------------------------------|
this is my first solo so I hope it's a good one, enjoy!!!
please rate this tab!


| /  slide up
| \  slide down
| h  hammer-on
| p  pull-off
| ~  vibrato
| +  harmonic
| x  Mute note
=============================================================================
            
Tabs too difficult? Try these video lessons and learn fast.




comments powered by Disqus
↑ Back to top | Tablatures and chords are parodies/interpretations of the original songs. You may use it for private study, scholarship, research or language learning purposes only