» » »

Im The Man Tabs (ver.1)

Artists:  A B C D E F G H I J K L M N O P Q R S T U V W X Y Z # 

Im The Man Tabs (ver.1)

Nashville Pussy
Rating:
0/5 (0 votes)

Tabs too difficult? Try these video lessons and learn fast.
                Awesome band. But either they don't have a big following or no one has bothered to tab 
stuff. I figured it out by chance so i may as well share this. Seriously this band should 
a lot more popular..tell a few mates. Especially great for ppl who like bands like ACDC

Standard E tuning.

Intro/Post chorus

e|---------------------------------------------------------|
B|---------------------------------------------------------|
G|---------------------------------------------------------|
D|-9-9-7-7-9-9-7-7-9-9-12-9-7------------------------------|
A|-7-7-5-5-7-7-5-5-7-7-10-7-5------------------------------|
E|---------------------------------------------------------|

Main Riff

e|-------------------------------------------------|
B|-------------------------------------------------|
G|-------------------------------------------------|
D|-9-9-7-9-----------------------------------------|
A|-7-7-5-7-5-2-2-----------------------------------|
E|---------3-0-0-----------------------------------|

Chorus

e|-----------------------------------------------------------------|
B|-----------------------------------------------------------------|
G|-----------------------------------------------------------------|
D|-----------------------------------------------------------------|
A|-7-7-9-7-7-7-7-9-7-7-7-7-9-7-7-9-9-9-11-9-9-9-11-9-12-12---------|
E|-5-5-5-5-5-5-5-5-5-5-5-5-5-5-5-5-7-7-7--7-7-7-7--7-10-10---------|
            
Tabs too difficult? Try these video lessons and learn fast.




comments powered by Disqus
↑ Back to top | Tablatures and chords are parodies/interpretations of the original songs. You may use it for private study, scholarship, research or language learning purposes only