» » »

Cambiera Bass tabs (ver.1)

Artists:  A B C D E F G H I J K L M N O P Q R S T U V W X Y Z # 

Cambiera Bass tabs (ver.1)

Neffa
Rating:
0/5 (0 votes)

Tabs too difficult? Try these video lessons and learn fast.
                Off of Alla Fine Della Note

Verse & Chorus
----------------------------------------|
----------------------------------------|
5-5---------2-0-0245-5---------2-0-0245-|
---345-5420-----------345-5420----------|

Bridge
------------------------------------------------------------------------|
------------2-2----------------2-2----------------2--------4------------|
-----9----7-------------9----7-------------9----7---------4--4----------|
7-(10)-5-9-0-0--0457-(10)-5-9-0-0-04057-(10)-5-9-0-00-0-25----52-244556-|

-----------------------------------------------------------------------------|
------------2-2----------------2-2--------------------(11)--------4---4----4-|
-----9----7-------------9----7-------------9----7----(11)-(11)---------------|
7-(10)-5-9-0-0--0457-(10)-5-9-0-0-04057-(10)-5-9-9(12)-----(12)-22--222-222--|
            
Tabs too difficult? Try these video lessons and learn fast.


comments powered by Disqus
↑ Back to top | Tablatures and chords are parodies/interpretations of the original songs. You may use it for private study, scholarship, research or language learning purposes only