» » »

End Of The Line Tabs (ver.1)

Artists:  A B C D E F G H I J K L M N O P Q R S T U V W X Y Z # 

End Of The Line Tabs (ver.1)

Negative
Rating:
0/5 (0 votes)

Tabs too difficult? Try these video lessons and learn fast.
                Hello.
Today I'm gonna show you tabs for the song called "The End of The Line".
Taken from the album "Neon" from 2010 year. The tab includes the guitar parts and the bass parts.
If you like this tab rate it. If you have any ideas or you have found a wrong notes tell me :).

The tuning is: Drop C. ( C-G-C-F-A-D )


The first notes:
d|---------------------|
A|---------------------|
F|--2h1h2h1------------|
C|----------4-2--------|
G|---------------------|
C|---------------------|


Play it two times! Bass plays the notes on the last string only :).
d|----------------------------------------------------------|
A|----------------------------------------------------------|
F|-----------------2h1h2h1----------------------2h1h2h1-----|
C|-------------------------4-2--------------------------4-2-|
G|-4-4-444--2-2-2---------------0-0-000--2-2-2--------------|
C|-4-4-444--2-2-2---------------0-0-000--2-2-2--------------|


In the verse bass and piano play only until pre-chorus. Then bass and the guitar play together.


VERSE:
F|----------------------------------|
C|----------------------------------|
G|----------------------------------|
C|--5-(48x)-3-(16x)-5-(16x)-3-(16x)-|


Then a guitar comes and plays harmonics 
(My guitar is tuned in drop B atm so I can only tell you notes on e string).
d|--17-16--12--14-----------|
A|--------------------------|
F|--------------------------|
C|--------------------------|
G|--------------------------|
C|--------------------------|


And in the pre-chorus the bass plays:
F|------------------------------|
C|------------------------------|
G|------------------------------|
C|--0-(x8)-2-(x8)-0-(x8)-2-(x8)-|


And then we have chorus. Remember to play it TWO TIMES.
d|-------------------------------------------|
A|-------------------------------------------|
F|-----------------------4-4-4444--4-4-4444--|
C|-----------------------2-2-2222--2-2-2222--|
G|--4-4-4444--7-7-7777-----------------------|
D|--4-4-4444--7-7-7777-----------------------|

And the notes in chorus on the bass:

F|------------------------------------------|
C|------------------------------------------|
G|----------------------2-2-2222--2-2-2222--|
D|--4-4-4444--7-7-7777----------------------|

And now the same as in the pre-chorus but on the guitar too:
Play it TWO TIMES!
d|------------------------------------|
A|------------------------------------|
F|------------------------------------|
C|------------------------------------|
G|--0-0-0-0-0-0-0-0--2-2-2-2-2-2-2-2--|
C|--0-0-0-0-0-0-0-0--2-2-2-2-2-2-2-2--|

And on the bass:
F|------------------------------|
C|------------------------------|
G|------------------------------|
C|--0-(x8)-2-(x8)-0-(x8)-2-(x8)-|

And once again.

d|--------------------------------------------|
A|--------------------------------------------|
F|--2h1h2h1-----------------------2h1h2h1-----|
C|----------4-2---------------------------4-2-|
G|---------------4-4-444--2-2-222-------------|
C|---------------4-4-444--2-2-222-------------|


And on the bass:
F|----------------|
C|----------------|
G|----------------|
C|--4-(x8)-2-(x8)-|

VERSE:
F|----------------------------------|
C|----------------------------------|
G|----------------------------------|
C|--4-(16x)-2-(16x)-0-(16x)-2-(16x)-|

d|--17-16--12--14-----------|
A|--------------------------|
F|--------------------------|
C|--------------------------|
G|--------------------------|
C|--------------------------|


And in the pre-chorus the bass plays:
F|------------------------------|
C|------------------------------|
G|------------------------------|
C|--0-(x8)-2-(x8)-0-(x8)-2-(x8)-|


And then we have chorus. Remember to play it TWO TIMES.
d|-------------------------------------------|
A|-------------------------------------------|
F|-----------------------4-4-4444--4-4-4444--|
C|-----------------------2-2-2222--2-2-2222--|
G|--4-4-4444--7-7-7777-----------------------|
D|--4-4-4444--7-7-7777-----------------------|

And the notes in chorus on the bass:

F|------------------------------------------|
C|------------------------------------------|
G|----------------------2-2-2222--2-2-2222--|
D|--4-4-4444--7-7-7777----------------------|

And now the same as in the pre-chorus but on the guitar too:
Play it TWO TIMES!
d|------------------------------------|
A|------------------------------------|
F|------------------------------------|
C|------------------------------------|
G|--0-0-0-0-0-0-0-0--2-2-2-2-2-2-2-2--|
C|--0-0-0-0-0-0-0-0--2-2-2-2-2-2-2-2--|

And on the bass:
F|------------------------------|
C|------------------------------|
G|------------------------------|
C|--0-(x8)-2-(x8)-0-(x8)-2-(x8)-|

And the guitar solo which is very easy...All these (^12) are elevated to 14th fret
d|-------------------------------------------------------------------------|
A|---/7------/5-----12--10-------^12(14)-10-------^12^12^12^12^12^12^12-12-|
F|-------5------4----------9h11------------9h10----------------------------|
C|-------------------------------------------------------------------------|
G|-------------------------------------------------------------------------|
C|-------------------------------------------------------------------------|

So then is last chorus. It's all here in tab.
            
Tabs too difficult? Try these video lessons and learn fast.




comments powered by Disqus
↑ Back to top | Tablatures and chords are parodies/interpretations of the original songs. You may use it for private study, scholarship, research or language learning purposes only