>
 >
Dont Let It Bring You Down

Dont Let It Bring You Down Bass Tabs

Neil Young - Dont Let It Bring You Down chords, tabs, tablatures, lyrics

Guitar lessons | Add/correct | Request | Top 50 tabs Artists:  A B C D E F G H I J K L M N O P Q R S T U V W X Y Z 0-9

Dont Let It Bring You Down Bass Tabs – Neil Young

CD, Sheet music, Poster

Do you like Dont Let It Bring You Down? Share with your friends now
Bass TabsChordsChords v2Chords v3Chords v4Ukulele
Standard Tuning


Intro
|---------------------------------|--------------------------------|
|---------------------------------|--------------------------------|
|---------------------------------|----------------6------6-6-6--6-|
|--8--------------6---------------|--8-----------------------------|

|---------------------------------|--------------------------------|
|---------------------------------|--------------------------------|
|---------------------------------|----------------6------6-6-6--6-|
|--8--------------6---------------|--8-----------------------------|

Verse
|---------------------------------|--------------------------------|
|-----10-10-----------------------|--------------------------------|
|---------------------------------|--6----------6--6------6---6----|
|--8-----------8--8------8---8----|--------------------------------|

|---------------------------------|--------------------------------|
|---------------------------------|--------------------------------|
|--8-8--------8----8-------8-8-8--|--6--6----6-----5-5---5---5-----|
|---------------------------------|--------------------------------|

|---------------------------------|--------------------------8-----|
|---------------------------------|--------------------------------|
|---------------------------------|-6--6--6------------6-6-6-------|
|-8-8--------8-8-8-8-8------8-8---|--------------------------------|

|---------------------------------|--------------------------------|
|---------------------------------|--------------------------------|
|8--8--8--8-8-8-8-8-8-8-8-8-8-----|-6-6-----6-----6-5-5----5----5\-|
|---------------------------------|--------------------------------|

Chorus
|---------------------------------|--------------------------------|
|---------------------------------|--------------------------------|
|---------------------------------|--------------------------------|
|-8-------8------8-8----8-8-8-8-8-|-6-------6-------6-6-----6------|

|---------------------------------|
|---------------------------------|
|---------------------------------|
|-5-------5-------5-5------5------|

Interlude
|---------------------------------|--------------------------------|
|---------------------------------|--------------------------------|
|---------------------------------|----------------6------6-6-6--6-|
|--8--------------6---------------|--8-----------------------------|

|---------------------------------|--------------------------------|
|---------------------------------|--------------------------------|
|---------------------------------|----------------6------6-6-6--6-|
|--8--------------6---------------|--8-----------------------------|

Verse
|---------------------------------|---8----8----------------------|
|----10---------------------------|-------------------------------|
|---------------------------------|-6--6--------6-6-6-6-----6-6---|
|-8-----8-8-8-8-8---8--8----8-----|-------------------------------|

|---------------------------------|-------------------------------|
|---------------------------------|-------------------------------|
|8-8---8---8-8-8-8-8-8-8-8-8-8----|-6-6-----6------5-5------5-----|
|---------------------------------|-------------------------------|

|---------------------------------|------------------------8------|
|--------------------10-----------|-------------------------------|
|---------------------------------|-6--6--6---6----6-6--6---------|
|-8--8----8-8-8-8-8-----8--8------|-------------------------------|

|---------------------------------|-------------------------------|
|---------------------------------|-------------------------------|
|8-8---8---8-8-8-8-8-8-8-8-8-8----|-6-6-----6-------5-5------5----|
|---------------------------------|-------------------------------|

Chorus
|---------------------------------|--------------------------------|
|---------------------------------|--------------------------------|
|---------------------------------|--------------------------------|
|-8-------8-------8-8------8------|-6-------6-------6-6-----6------|

|---------------------------------|
|---------------------------------|
|---------------------------------|
|-5-------5-------5-5------5------|

Interlude
|---------------------------------|--------------------------------|
|---------------------------------|--------------------------------|
|---------------------------------|----------------6------6-6-6--6-|
|--8--------------6---------------|--8-----------------------------|

|---------------------------------|--------------------------------|
|---------------------------------|--------------------------------|
|---------------------------------|----------------6------6-6-6--6-|
|--8--------------6---------------|--8-----------------------------|


Chorus/Refrain
|---------------------------------|--------------------------------|
|---------------------------------|--------------------------------|
|---------------------------------|--------------------------------|
|-8-------------------------------|-8------------------------------|

|---------------------------------|--------------------------------|
|---------------------------------|--------------------------------|
|---------------------------------|--------------------------------|
|-6-------------------------------|-5------------------------------|

Interlude
|---------------------------------|--------------------------------|
|---------------------------------|--------------------------------|
|---------------------------------|----------------6------6-6-6--6-|
|--8--------------6---------------|--8-----------------------------|

|---------------------------------|--------------------------------|
|---------------------------------|--------------------------------|
|---------------------------------|----------------6------6-6-6--6-|
|--8--------------6---------------|--8-----------------------------|
                                               
Chorus/Refrain
|---------------------------------|--------------------------------|
|------10-------------------------|--------------------------------|
|---------------------------------|--------------------------------|
|-8-------------------------------|-8------------------------------|

|---------------------------------|--------------------------------|
|---------------------------------|--------------------------------|
|---------------------------------|--------------------------------|
|-6-------------------------------|-5------------------------------|

Outro
|---------------------------------|--------------------------------|
|---------------------------------|--------------------------------|
|-----------------8---------------|--------------------------------|
|-8-------------------------------|-8---------------1--------------|





Comments


Popular Neil Young tabs & chords
Rocking In The Free World Bass Tabs
Depression Blues Chords
Falling Off The Face Of The Earth Chords
Inca Queen Chords
On The Way Home Live Chords
Country Home 1 Tabs
Walk On 1 Tabs
Casting Me Away From You Ukulele
Four Dead In Ohio Ukulele
Long Walk Home Ukulele


Song lyrics



↑ Back to top | Tablatures and chords are parodies/interpretations of the original songs. You may use it for private study, scholarship, research or language learning purposes only
© 2014 AZChords.com Contact us | Privacy policy | DMCA | Add/correct tabs | Request tabs | Top 50 tabs