>
 >
War Of Man

War Of Man Bass Tabs

Neil Young - War Of Man chords, tabs, tablatures, lyrics

Guitar lessons | Add/correct | Request | Top 50 tabs Artists:  A B C D E F G H I J K L M N O P Q R S T U V W X Y Z 0-9

War Of Man Bass Tabs – Neil Young

CD, Sheet music, Poster

Do you like War Of Man? Share with your friends now
Bass TabsChordsTabs
Bass



     W                   W                   W                 
G||-------------------|-------------------|-------------------|
D||-------------------|-------------------|-------------------|
A||-------------------|-------------------|-------------------|
D||-------------------|-------------------|-------------------|


  H        Q    Q       Q    Q    H           W                 
---------------------|---------------------|-------------------|
---------------------|---------------------|-------------------|
---------------------|---------------------|-------------------|
----------------2----|--0------------------|-------------------|


  W                   H        Q    Q       Q    Q    E  E  E  E   
-------------------|---------------------|------------------------|
-------------------|---------------------|------------------------|
-------------------|---------------------|------------------------|
-------------------|----------------2----|--0---------0--3--5--0--|


  H        E  E  E  E     H        E  E  Q       E  E  E  E  E  E  E  E   
-----------------------|----------------------|--------------------------|
-----------------------|----------------------|--------------------------|
-----------------------|----------------------|--------------------------|
--L--------3--5--7--3--|--L--------5--5--7----|--0--0--0--0--0--3--5--0--|


  H        E  E  E  E     H        E  E  E  E     H        E  E  Q     
-----------------------|-----------------------|----------------------|
-----------------------|-----------------------|----------------------|
-----------------------|-----------------------|----------------------|
--L--------0--3--5--0--|--L--------3--5--7--3--|--L--------5--5--7----|


  E  E  E  E  E  E  E  E     E  E  E  E  E  E  E  E   
--------------------------|--------------------------|
--------------------------|--------------------------|
--------------------------|--------------------------|
--0--0--0--0--0--3--5--0--|--0--0--3--5--7--5--3--3--|


  E  E  E  E  E  E  E  E     E  E  E  E  E  E  E  E   
--------------------------|--------------------------|
--------------------------|--------------------------|
--------------------------|--------------------------|
--3--5--5--7--7--7--7--7--|--0--0--3--5--7--5--3--3--|


  E  E  E  E  E  E  E  E     E  E  E  E  E  E  E  E   
--------------------------|--------------------------|
--------------------------|--------------------------|
--------------------------|--------------------------|
--3--7--7--5--5--5--5--5--|--0--0--3--5--7--5--3--3--|


  E  E  E  E  E  E  E  E     E  E  E  E  E  E  E  E   
--------------------------|--------------------------|
--------------------------|--------------------------|
--------------------------|--------------------------|
--3--5--5--7--7--7--7--7--|--0--0--3--5--7--5--3--3--|


  E  E  E  E  E  E  E  E     Q    Q    E  E  E  E     H        E  E  E  E   
--------------------------|------------------------|-----------------------|
--------------------------|------------------------|-----------------------|
--------------------------|------------------------|-----------------------|
--3--7--7--5--5--5--5--5--|--0---------0--3--5--0--|--L--------3--5--7--3--|


  H        E  E  Q       E  E  E  E  E  E  E  E     H        E  E  E  E   
----------------------|--------------------------|-----------------------|
----------------------|--------------------------|-----------------------|
----------------------|--------------------------|-----------------------|
--L--------5--5--7----|--0--0--0--0--0--3--5--0--|--L--------0--3--5--0--|


  H        E  E  E  E     H        E  E  Q       E  E  E  E  E  E  E  E   
-----------------------|----------------------|--------------------------|
-----------------------|----------------------|--------------------------|
-----------------------|----------------------|--------------------------|
--L--------3--5--7--3--|--L--------5--5--7----|--0--0--0--0--0--3--5--0--|


  E  E  E  E  E  E  E  E     E  E  E  E  E  E  E  E   
--------------------------|--------------------------|
--------------------------|--------------------------|
--------------------------|--------------------------|
--0--0--3--5--7--5--3--3--|--3--5--5--7--7--7--7--7--|


  E  E  E  E  E  E  E  E     E  E  E  E  E  E  E  E   
--------------------------|--------------------------|
--------------------------|--------------------------|
--------------------------|--------------------------|
--0--0--3--5--7--5--3--3--|--3--7--7--5--5--5--5--5--|


  E  E  E  E  E  E  E  E     E  E  E  E  E  E  E  E   
--------------------------|--------------------------|
--------------------------|--------------------------|
--------------------------|--------------------------|
--0--0--3--5--7--5--3--3--|--3--5--5--7--7--7--7--7--|


  E  E  E  E  E  E  E  E     E  E  E  E  E  E  E  E     Q    Q    Q    Q     
--------------------------|--------------------------|--5----5----5----5----|
--------------------------|--------------------------|----------------------|
--------------------------|--------------------------|----------------------|
--0--0--3--5--7--5--3--3--|--3--7--7--5--5--5--5--5--|----------------------|


  Q    Q    Q    Q       Q    Q    Q    Q       E     E  Q     E     E  Q     
--5----5----5----5----|----------------------|-------------------------------|
----------------------|--8----8----8----8----|--8--8g10--L----10--10g7--L----|
----------------------|----------------------|--8--8g10--L----10--10g7--L----|
----------------------|----------------------|-------------------------------|


  W                   H        E  E  E  E     H        E  E  E  E   
-------------------|-----------------------|-----------------------|
-------------------|--------------5--7--5--|--L--------L--0--0--3--|
-------------------|-----------------------|-----------------------|
--0----------------|--0--------L-----------|-----------------------|


  W                   Q    Q    Q    Q       Q    Q    Q    Q     
-------------------|--5----5----5----5----|--5----5----5----5----|
--L----------------|----------------------|----------------------|
-------------------|----------------------|----------------------|
-------------------|----------------------|----------------------|


  Q    Q    Q    Q       E     E  Q     E     E  Q       W                 
----------------------|-------------------------------|-------------------|
--8----8----8----8----|--8--8g10--L----10--10g7--L----|-------------------|
----------------------|--8--8g10--L----10--10g7--L----|-------------------|
----------------------|-------------------------------|--0----------------|


  H        E  E  E  E     H        E  E  E   E      E  E  H.            
-----------------------|------------------------|----------------------|
--------------5--7--5--|--L--------L--7--7--15--|--12--L--L------------|
-----------------------|------------------------|----------------------|
--0--------L-----------|------------------------|----------------------|


  W                   W                   W                 
-------------------|-------------------|-------------------|
-------------------|-------------------|-------------------|
-------------------|-------------------|-------------------|
-------------------|-------------------|-------------------|


  H        Q    Q       Q    Q    H           W                 
---------------------|---------------------|-------------------|
---------------------|---------------------|-------------------|
---------------------|---------------------|-------------------|
----------------2----|--0------------------|-------------------|


  W                   H        Q    Q       Q    Q    E  E  E  E   
-------------------|---------------------|------------------------|
-------------------|---------------------|------------------------|
-------------------|---------------------|------------------------|
-------------------|----------------2----|--0---------0--3--5--0--|


  H        E  E  E  E     H        E  E  Q       E  E  E  E  E  E  E  E   
-----------------------|----------------------|--------------------------|
-----------------------|----------------------|--------------------------|
-----------------------|----------------------|--------------------------|
--L--------3--5--7--3--|--L--------5--5--7----|--0--0--0--0--0--3--5--0--|


  H        E  E  E  E     H        E  E  E  E     H        E  E  Q     
-----------------------|-----------------------|----------------------|
-----------------------|-----------------------|----------------------|
-----------------------|-----------------------|----------------------|
--L--------0--3--5--0--|--L--------3--5--7--3--|--L--------5--5--7----|


  E  E  E  E  E  E  E  E     H        E  E  E  E     H        E  E  E  E   
--------------------------|-----------------------|-----------------------|
--------------------------|-----------------------|-----------------------|
--------------------------|-----------------------|-----------------------|
--0--0--0--0--0--3--5--0--|--L--------0--3--5--0--|--L--------3--5--7--3--|


  H        E  E  Q       E  E  E  E  E  E  E  E     H        E  E  E  E   
----------------------|--------------------------|-----------------------|
----------------------|--------------------------|-----------------------|
----------------------|--------------------------|-----------------------|
--L--------5--5--7----|--0--0--0--0--0--3--5--0--|--L--------0--3--5--0--|


  H        E  E  E  E     H        E  E  Q       E  E  E  E  E  E  E  E   
-----------------------|----------------------|--------------------------|
-----------------------|----------------------|--------------------------|
-----------------------|----------------------|--------------------------|
--L--------3--5--7--3--|--L--------5--5--7----|--0--0--0--0--0--3--5--0--|


  E  E  E  E  E  E  E  E     E  E  E  E  E  E  E  E   
--------------------------|--------------------------|
--------------------------|--------------------------|
--------------------------|--------------------------|
--0--0--3--5--7--5--3--3--|--3--5--5--7--7--7--7--7--|


  E  E  E  E  E  E  E  E     E  E  E  E  E  E  E  E   
--------------------------|--------------------------|
--------------------------|--------------------------|
--------------------------|--------------------------|
--0--0--3--5--7--5--3--3--|--3--7--7--5--5--5--5--5--|


  E  E  E  E  E  E  E  E     E  E  E  E  E  E  E  E   
--------------------------|--------------------------|
--------------------------|--------------------------|
--------------------------|--------------------------|
--0--0--3--5--7--5--3--3--|--3--5--5--7--7--7--7--7--|


  E  E  E  E  E  E  E  E     E  E  E  E  E  E  E  E     Q    Q    Q    Q     
--------------------------|--------------------------|--5----5----5----5----|
--------------------------|--------------------------|----------------------|
--------------------------|--------------------------|----------------------|
--0--0--3--5--7--5--3--3--|--3--7--7--5--5--5--5--5--|----------------------|


  Q    Q    Q    Q       Q    Q    Q    Q       E     E  Q     E     E  Q     
--5----5----5----5----|----------------------|-------------------------------|
----------------------|--8----8----8----8----|--8--8g10--L----10--10g7--L----|
----------------------|----------------------|--8--8g10--L----10--10g7--L----|
----------------------|----------------------|-------------------------------|


  W                   H        E  E  E  E     H        E  E  E  E   
-------------------|-----------------------|-----------------------|
-------------------|--------------5--7--5--|--L--------L--0--0--3--|
-------------------|-----------------------|-----------------------|
--0----------------|--0--------L-----------|-----------------------|


  W                   Q    Q    Q    Q       Q    Q    Q    Q     
-------------------|--5----5----5----5----|--5----5----5----5----|
--L----------------|----------------------|----------------------|
-------------------|----------------------|----------------------|
-------------------|----------------------|----------------------|


  Q    Q    Q    Q       E     E  Q     E     E  Q       W                 
----------------------|-------------------------------|-------------------|
--8----8----8----8----|--8--8g10--L----10--10g7--L----|-------------------|
----------------------|--8--8g10--L----10--10g7--L----|-------------------|
----------------------|-------------------------------|--0----------------|


  H        E  E  E  E     H        E  E  E   E      E  E  H.            
-----------------------|------------------------|----------------------|
--------------5--7--5--|--L--------L--7--7--15--|--12--L--L------------|
-----------------------|------------------------|----------------------|
--0--------L-----------|------------------------|----------------------|


  W                   W                   W                 
-------------------|-------------------|-------------------|
-------------------|-------------------|-------------------|
-------------------|-------------------|-------------------|
-------------------|-------------------|-------------------|


  H        Q    Q       Q    Q    H           W                 
---------------------|---------------------|-------------------|
---------------------|---------------------|-------------------|
---------------------|---------------------|-------------------|
----------------2----|--0------------------|-------------------|


  W                   H        Q    Q       Q    Q    E  E  E  E   
-------------------|---------------------|------------------------|
-------------------|---------------------|------------------------|
-------------------|---------------------|------------------------|
-------------------|----------------2----|--0---------0--3--5--0--|


  H        E  E  E  E     H        E  E  Q       E  E  E  E  E  E  E  E   
-----------------------|----------------------|--------------------------|
-----------------------|----------------------|--------------------------|
-----------------------|----------------------|--------------------------|
--L--------3--5--7--3--|--L--------5--5--7----|--0--0--0--0--0--3--5--0--|


  H        E  E  E  E     H        E  E  E  E     H        E  E  Q     
-----------------------|-----------------------|----------------------|
-----------------------|-----------------------|----------------------|
-----------------------|-----------------------|----------------------|
--L--------0--3--5--0--|--L--------3--5--7--3--|--L--------5--5--7----|


  E  E  E  E  E  E  E  E     E  E  E  E  E  E  E  E   
--------------------------|--------------------------|
--------------------------|--------------------------|
--------------------------|--------------------------|
--0--0--0--0--0--3--5--0--|--0--0--3--5--7--5--3--3--|


  E  E  E  E  E  E  E  E     E  E  E  E  E  E  E  E   
--------------------------|--------------------------|
--------------------------|--------------------------|
--------------------------|--------------------------|
--3--5--5--7--7--7--7--7--|--0--0--3--5--7--5--3--3--|


  E  E  E  E  E  E  E  E     E  E  E  E  E  E  E  E   
--------------------------|--------------------------|
--------------------------|--------------------------|
--------------------------|--------------------------|
--3--7--7--5--5--5--5--5--|--0--0--3--5--7--5--3--3--|


  E  E  E  E  E  E  E  E     E  E  E  E  E  E  E  E   
--------------------------|--------------------------|
--------------------------|--------------------------|
--------------------------|--------------------------|
--3--5--5--7--7--7--7--7--|--0--0--3--5--7--5--3--3--|


  E  E  E  E  E  E  E  E     W                   W                 
--------------------------|-------------------|-------------------|
--------------------------|-------------------|-------------------|
--------------------------|-------------------|-------------------|
--3--7--7--5--5--5--5--5--|-------------------|-------------------|


  W                   W                   W                   W                 
-------------------|-------------------|-------------------|-------------------|
-------------------|-------------------|-------------------|-------------------|
-------------------|-------------------|-------------------|-------------------|
-------------------|-------------------|-------------------|-------------------|


  W                   W                   W                   W                 
-------------------|-------------------|-------------------|-------------------|
-------------------|-------------------|-------------------|-------------------|
-------------------|-------------------|-------------------|-------------------|
-------------------|-------------------|-------------------|-------------------|


  W                   W                   W                   W                 
-------------------|-------------------|-------------------|-------------------|
-------------------|-------------------|-------------------|-------------------|
-------------------|-------------------|-------------------|-------------------|
-------------------|-------------------|-------------------|-------------------|


  W                  
-------------------||
-------------------||
-------------------||
-------------------||




Duration Legend
---------------
W - whole
H - half
Q - quarter
E - 8th
S - 16th
T - 32nd
X - 64th
. - note dotted
|-n-|  - n-tuplets


Tablature Legend
----------------
L - tied note
x - dead note
g - grace note
(n) - ghost note
> - accentuded note
NH - natural harmonic
AH - artificial harmonic
TH - tapped harmonic
SH - semi harmonic
PH - pitch harmonic
h - hammer on
p - pull off
b - bend
br - bendRelease
pb - preBend
pbr - preBendRelease
brb - bendReleaseBend
\n/ - tremolo bar dip
\n - tremolo bar dive
-/n - tremolo bar Release up
/n\ - tremolo bar inverted dip
/n - tremolo bar return
-\n - tremolo bar Release down
S - shift slide
s - legato slide
/ -  slide into from below or out of upwards
\ -  slide into from above or out of downwards
~ - vibrato
W - wide vibrato
tr - trill
TP - tremolo picking
T - tapping
S - slap
P - pop
< - fade in
^ - brush up
v - brush down





Comments


Popular Neil Young tabs & chords
Harvest Moon Chords
Kinda Fonda Wonder Chords
Mr Disappointment Chords
No Wonder Chords
Only Love Can Break Your Heart 3 Chords
Peace Of Mind Chords
Rockin In The Free World 2 Chords
Stringman Chords
Till The Morning Comes Chords
Midnight On The Bay Ukulele


Song lyrics



↑ Back to top | Tablatures and chords are parodies/interpretations of the original songs. You may use it for private study, scholarship, research or language learning purposes only
© 2014 AZChords.com Contact us | Privacy policy | DMCA | Add/correct tabs | Request tabs | Top 50 tabs