» » »

Empire Tabs (ver.1)

Artists:  A B C D E F G H I J K L M N O P Q R S T U V W X Y Z # 

Empire Tabs (ver.1)

Nemisis
Rating:
0/5 (0 votes)

Tabs too difficult? Try these video lessons and learn fast.
                repeat 4x
E-|-----------------------------------------------------||
B-|-----------------------------------------------------||
G-|-2-2--2-4-2-----2---5-4-----5---7-5-----7---5--4h5-7-||
D-|-2-2--3-3-3-----3---3-3-----3---5-5-----5---5------5-||
A-|-0-0--------0-0---0-----0-0---0-----0-0---0----------||
E-|-----------------------------------------------------||


After you go through that twice, however, there is this little bit of lead
that kinda copies the vocal line of the chorus:
E-|----------------------------------|----------------------------------------|
B-|-9b10r9---------------------------|-10--10----10-12--12-10-12-13--13-12-13-|
G-|--------9-10---10-b12r10--9h10----|--------12------------------------------|
D-|-------------------------------12-|----------------------------------------|
A-|----------------------------------|----------------------------------------|
E-|----------------------------------|----------------------------------------|


E-|------------------------|
B-|-12b15r12-12h13-10~~~~~~|
G-|------------------------|
D-|------------------------|
A-|------------------------|(rhythm guitar ends on A5)
E-|------------------------|
            
Tabs too difficult? Try these video lessons and learn fast.




comments powered by Disqus
↑ Back to top | Tablatures and chords are parodies/interpretations of the original songs. You may use it for private study, scholarship, research or language learning purposes only