» » »

Girls And Boys In School Bass tabs (ver.1)

Artists:  A B C D E F G H I J K L M N O P Q R S T U V W X Y Z # 

Girls And Boys In School Bass tabs (ver.1)

Neon Trees
Rating:
0/5 (0 votes)

Tabs too difficult? Try these video lessons and learn fast.
                -------------------------------------
Girls and Boys in School - Neon Trees
-------------------------------------

Tuning: Standard


G|--------|--------|----------------|X3
D|--------|--------|----------------|
A|--------|--------|-4--------------|
E|-5------|-2------|----------------|


G|--------|-----------------|---------------------|---------------------|
D|--------|-----------------|------11--------11---|------11---14---16---|
A|--------|------------16---|-4---------4---------|-4-------------------|
E|-5------|-2---------------|---------------------|---------------------|


G|-----6-------6-------6-------6---|---------------------6-------7---|
D|---------------------------------|-----7-------7-------------------|
A|-4-------4-------4-------4-------|-----------------4-------5-------|
E|---------------------------------|-5-------5-----------------------|


        |-----9-------9-------9-------9---|-----11------11------11-------|X2
        |---------------------------------|------------------------------|
        |-7-------7-------7-------7-------|-9-------9-------9-------9----|
        |---------------------------------|------------------------------|


G|--------|--------|----------------|--------|--------|--------|---------------------------|
D|--------|--------|----------------|--------|--------|--------|---------------------------|
A|--------|--------|-4--------------|--------|--------|-4------|-2---4-------2--------4----|
E|-5------|-2------|----------------|-5------|-2------|--------|---------------------------|


G|--------|--------|----------------|--------|--------------------|
D|--------|--------|----------------|--------|--------------------|
A|--------|--------|-4--------------|--------|--------------------|
E|-5------|-2------|----------------|-5------|----------------12--|


G|---------------------|---------------------|
D|------11--------11---|------11---14---16---|
A|-4---------4---------|-4-------------------|
E|---------------------|---------------------|


G|-----6-------6-------6-------6---|---------------------6-------7---|
D|---------------------------------|-----7-------7-------------------|
A|-4-------4-------4-------4-------|-----------------4-------5-------|
E|---------------------------------|-5-------5-----------------------|


        |-----9-------9-------9-------9---|-----11------11------11-------|X4
        |---------------------------------|------------------------------|
        |-7-------7-------7-------7-------|-9-------9-------9-------9----|
        |---------------------------------|------------------------------|


G|--------|--------|--------|----------------------------|
D|--------|--------|--------|----------------------------|
A|--------|--------|-4------|-------4---2---4---2--4-----|
E|-5------|-2------|--------|----------------------------|


G|--------|--------|--------|----------------------------|
D|--------|--------|--------|----------------------------|
A|-12-----|-9------|-4------|-4-----4---2-2-4---2--4-----|
E|--------|--------|--------|----------------------------|


G|--------|--------------------|--------|----------------------------|
D|--------|--------------------|--------|----------------------------|
A|-12-----|-9----------7---6---|-4------|-------4---2---4---2--4-----|
E|--------|-------2------------|--------|----------------------------|


G|--------|-----------------|---------------------|
D|--------|-----------------|------11--------11---|
A|-12-----|-9----------16---|-4---------4---------|
E|--------|-----------------|---------------------|


G|-----6-------6-------6-------6---|---------------------6-------7---|
D|---------------------------------|-----7-------7-------------------|
A|-4-------4-------4-------4-------|-----------------4-------5-------|
E|---------------------------------|-5-------5-----------------------|
        

        |-----9-------9-------9-------9---|-----11------11------11-------|X6
        |---------------------------------|------------------------------|
        |-7-------7-------7-------7-------|-9-------9-------9-------9----|
        |---------------------------------|------------------------------|


G|--------|--------|--------|---------------------------|
D|--------|--------|--------|---------------------------|
A|--------|--------|-4------|-2---4-------2---4---------|
E|-5------|-2------|--------|---------------------------|


G|--------|--------|-----------------|
D|--------|--------|-----------------|
A|--------|--------|-4---------------|
E|-5------|-2------|-----------------|
            
Tabs too difficult? Try these video lessons and learn fast.


comments powered by Disqus
↑ Back to top | Tablatures and chords are parodies/interpretations of the original songs. You may use it for private study, scholarship, research or language learning purposes only