» » »

Happy Bass tabs (ver.1)

Artists:  A B C D E F G H I J K L M N O P Q R S T U V W X Y Z # 

Happy Bass tabs (ver.1)

N.E.R.D.
Rating:
0/5 (0 votes)

Tabs too difficult? Try these video lessons and learn fast.
                HAPPY by N.E.R.D. from the album "Seeing Sounds"

Simple number based primarily on eighth notes.  Bass is absent for first 7 measures.  
in on Verse 1 at:

 "You had
 me..."     (VERSE)
G|----------|--------|--------|--------|--------|--------|--------|--------|
D|----------|--------|--------|--------|--------|--------|--------|--------|
A|-8--8-----|--------|--------|33333333|33333333|55555555|55555555|--------|
E|--00-00-0/|55555555|55555555|--------|--------|--------|--------|00000000|
                                                (REPEAT ONCE THROUGH CHORUS)

                 "Don't try     "Coz I
(REFRAIN)        coming back"   will not..."     "...Cared"
G|--------|------|-------|------|------|------|------|---|----------------||
D|--------|------|-------|------|------|------|------|---|----7-9-10-9-7-8||
A|-8---8--|5-55-5|5------|5-55-5|5-----|5-55-5|5-----|0-0|-0-0------------||
E|--00--00|------|--3-3-3|------|--3-33|------|--3-33|---|----------------||
                                                           (RETURN TO VERSE)
            
Tabs too difficult? Try these video lessons and learn fast.




comments powered by Disqus
↑ Back to top | Tablatures and chords are parodies/interpretations of the original songs. You may use it for private study, scholarship, research or language learning purposes only