» » »

Drain You Bass tabs (ver.2)

Artists:  A B C D E F G H I J K L M N O P Q R S T U V W X Y Z # 

Drain You Bass tabs (ver.2)

Nirvana
Rating:
0/5 (0 votes)

Tabs too difficult? Try these video lessons and learn fast.
                Band:Nirvana
Tuning: stanard


Try to fit in the way it goes..
This tab is 99% correct if done correctly..

intro/verse
G[----------------------|
D[----------------------|
A[--0 0 0-44--------222-|
E[-----------2 2 2------| (x6)

pre-Chorus
G[------------|
D[------------|
A[------------|
E[--1-0-------|

chorus
G[---------------|
D[---------------|
A[222222---------|
E[------000000---| (x3)

G[---------------|
D[---------------|
A[222222-2~0~----|
E[------------4~-|
        I Like You...

Play Everything on top in order once more.

bridge
G[-----------------------|
D[---------4--4--4--4--4-|
A[-----------------------|   Repeat as much as song goes..
E[222222222-2--2--2--2---|


Now if you didnt understand me, put the pieces together, these are the correct tabs that 
played, CG...

Union city NJ
3.12.09
            
Tabs too difficult? Try these video lessons and learn fast.


comments powered by Disqus
↑ Back to top | Tablatures and chords are parodies/interpretations of the original songs. You may use it for private study, scholarship, research or language learning purposes only