» » »

Drain You Tabs (ver.4)

Artists:  A B C D E F G H I J K L M N O P Q R S T U V W X Y Z # 

Drain You Tabs (ver.4)

Nirvana
Rating:
0/5 (0 votes)

Tabs too difficult? Try these video lessons and learn fast.
                (Live)
Nirvana Drain you live French tv
the best version of the song.

Standard tunning


e-------------------------------------|
b-------------------------------------|
g-------------------------------------|
d-4444444////88888----------66666-----|
a-2222222////66666--66666--44444------|
E----------------------44444----------|


add the g string when the drums and bass join kurt's guitar

before the chorus

e---------|
b---------|
g---------|
d-4--2----|
a-4--2----|
E-2-------|

chorus repeat this 4x

e----------------------|
b----------------------|
g----------------------|
d--666666----22222-----|
a--444444----22222-----|
E----------------------|

chorus ends with

e-----------|
b-----------|
g-4---2-----|
d-4---2--6--|
a-2------6--|
E--------4--|

I LIKE YOU ...

The instrumental part

e--------------------------|
b--------------------------|
g--------------------------|
d--------------------------|
a-6666666666---------------|
E-4444444444---------------|


use verse chords 2x
then
verse
chorus


this song is for my crush ayis "I Like You"
            
Tabs too difficult? Try these video lessons and learn fast.


comments powered by Disqus
↑ Back to top | Tablatures and chords are parodies/interpretations of the original songs. You may use it for private study, scholarship, research or language learning purposes only