>
 >
In Bloom 3

In Bloom 3 Guitar Tabs

Nirvana - In Bloom 3 chords, tabs, tablatures, lyrics

Guitar lessons | Add/correct | Request | Top 50 tabs Artists:  A B C D E F G H I J K L M N O P Q R S T U V W X Y Z 0-9

In Bloom 3 Guitar Tabs – Nirvana

CD, Sheet music, Poster

Do you like In Bloom 3? Share with your friends now
Bass TabsBass Tabs v2Bass Tabs v3Bass Tabs v4ChordsChords v2Chords v3Drum TabsTabsTabs v2Tabs v3Tabs v4Tabs v5Tabs v6Tabs v7Tabs v8Ukulele
In Bloom                                     

Guitar 1
Needs bass

                                                          
E||----------------------------|-----------------------------|
B||----------------------------|-----------------------------|
G||--3---3-3-------------------|-----------------------------|
D||--3---3-3--5---5-5--5-5-5-3-|--3---3-3/6-6----6-6-6-----0-|
A||--1---1-1--5---5-5--5-5-5-3-|--3---3-3/6-6----6-6-6-------|
E||-----------3---3-3--3-3-3-1-|--1---1-1/4-4----4-4-4-1-4---|


                                                     
-----------------------------|----------------------|
-----------------------------|----------------------|
--3---3-3-0------------------|----------------------|
--3---3-3-0-5---5-5--5-5-5\3-|--3---3-3/-6----------|
--1---1-1-0-5---5-5--5-5-5\3-|--3---3-3/-6----------|
------------3---3-3--3-3-3\1-|--1---1-1/-4----------|


                                                                   
--------------------------------|---------------------------------|
--------------------------------|---------------------------------|
--3-3-3-3-3--x-3----------------|--8-8-8-8-8--x-8\4-4-4-4-2-2-2-2-|
--3-3-3-3-3--x-3-4-4-4-4-4--x-4/|--8-8-8-8-8--x-8\4-4-4-4-2-2-2-2-|
--1-1-1-1-1--x-1-4-4-4-4-4--x-4/|--6-6-6-6-6--x-6\2-2-2-2-0-0-0-0-|
-----------------2-2-2-2-2--x-2/|---------------------------------|


                                                                   
--------------------------------|---------------------------------|
--------------------------------|---------------------------------|
--3-3-3-3-3--x-3----------------|--8-8-8-8-8--x-8\4-4-4-4-2-2-2-2-|
--3-3-3-3-3--x-3-4-4-4-4-4--x-4/|--8-8-8-8-8--x-8\4-4-4-4-2-2-2-2-|
--1-1-1-1-1--x-1-4-4-4-4-4--x-4/|--6-6-6-6-6--x-6\2-2-2-2-0-0-0-0-|
-----------------2-2-2-2-2--x-2/|---------------------------------|


                                                                            
------------------|------------------|------------------|------------------|
------------------|------------------|------------------|------------------|
------------------|------------------|------------------|------------------|
------------------|------------------|------------------|------------------|
------------------|------------------|------------------|------------------|
------------------|------------------|------------------|------------------|


                                                          
--1---1-1--x-0-2---2-2--x-x-|----------x------2------0---|
--3---3-3--x-0-2---2-2--x-x-|--8----8--x------4-4----2-2-|
--3---3-3--x-0-3---3-3--x-x-|--8----8--x-8-4--4-4-2--2-2-|
--3---3-3--x-0-4---4-4--x-x-|--8----8--x-8-4----3-2----2-|
--1---1-1------4---4-4------|--6----6----6-2------0------|
---------------2---2-2------|----------------------------|


                                                                                
-------1--x-0----------------|-------------------------------------------------|
-------3--x-0-2-2-2-2-2--x-x-|--8-8-8-8-8--8-8---------------------------------|
--3----3--x-0-3-3-3-3-3--x-x-|--8-8-8-8-8--8-8-4-4-4-4-4-4-4-4-7-7-7-7-7-7-7-7-|
--3-----------4-4-4-4-4--x-x-|--8-8-8-8-8--8-8-4-4-4-4-4-4-4-4-7-7-7-7-7-7-7-7-|
--1-----------4-4-4-4-4--x-x-|--6-6-6-6-6--6-6-2-2-2-2-2-2-2-2-5-5-5-5-5-5-5-5-|
--------------2-2-2-2-2--x-x-|-------------------------------------------------|


                                                             
----------------------------|-------------------------------|
----------------------------|-------------------------------|
--3---3-3--3----------------|--3---3-3-3-3-3----------------|
--3---3-3--3--5--5-5-5--5-5-|--3---3-3-3-3-3-5--5-5-5-5-5-5-|
--1---1-1--1--5--5-5-5--5-5-|--1---1-1-1-1-1-5--5-5-5-5-5-5-|
--------------3--3-3-3--3-3-|----------------3--3-3-3-3-3-3-|


                                                               
------------------------------|-------------------------------|
------------------------------|-------------------------------|
--3---3-3--3-3----------------|--3---3-3-3-3-3----------------|
--3---3-3--3-3-5--5-5-5-5-5-5-|--3---3-3-3-3-3-5--5-5-5-5-5-5-|
--1---1-1--1-1-5--5-5-5-5-5-5-|--1---1-1-1-1-1-5--5-5-5-5-5-5-|
---------------3--3-3-3-3-3-3-|----------------3--3-3-3-3-3-3-|


                                                              
------------------------------|------------------------------|
--5--5-5-5--5-8--8-8-8-8--8-8-|--5--5-5-5--5-8--8-8-8-8--8-8-|
--5--5-5-5--5-8--8-8-8-8--8-8-|--5--5-5-5--5-8--8-8-8-8--8-8-|
--5--5-5-5--5-8--8-8-8-8--8-8-|--5--5-5-5--5-8--8-8-8-8--8-8-|
--3--3-3-3--3-6--6-6-6-6--6-6-|--3--3-3-3--3-6--6-6-6-6--6-6-|
------------------------------|------------------------------|


                                                             
----------------------------|-------------------------------|
----------------------------|-------------------------------|
--3---3-3--3----------------|--3---3-3-3-3-3----------------|
--3---3-3--3--5--5-5-5--5-5-|--3---3-3-3-3-3-5--5-5-5-5-5-5-|
--1---1-1--1--5--5-5-5--5-5-|--1---1-1-1-1-1-5--5-5-5-5-5-5-|
--------------3--3-3-3--3-3-|----------------3--3-3-3-3-3-3-|


                                                               
------------------------------|-------------------------------|
------------------------------|-------------------------------|
--3---3-3--3-3----------------|--3---3-3-3-3-3----------------|
--3---3-3--3-3-5--5-5-5-5-5-5-|--3---3-3-3-3-3-5--5-5-5-5-5-5-|
--1---1-1--1-1-5--5-5-5-5-5-5-|--1---1-1-1-1-1-5--5-5-5-5-5-5-|
---------------3--3-3-3-3-3-3-|----------------3--3-3-3-3-3-3-|


                                                              
------------------------------|------------------------------|
--5--5-5-5--5-8--8-8-8-8--8-8-|--5--5-5-5--5-8--8-8-8-8--8-8-|
--5--5-5-5--5-8--8-8-8-8--8-8-|--5--5-5-5--5-8--8-8-8-8--8-8-|
--5--5-5-5--5-8--8-8-8-8--8-8-|--5--5-5-5--5-8--8-8-8-8--8-8-|
--3--3-3-3--3-6--6-6-6-6--6-6-|--3--3-3-3--3-6--6-6-6-6--6-6-|
------------------------------|------------------------------|


                                                           
----------------------------|-----------------------------|
----------------------------|-----------------------------|
--3---3-3-------------------|-----------------------------|
--3---3-3--5---5-5--5-5-5-3-|--3---3-3/6-6----6-6-6-----0-|
--1---1-1--5---5-5--5-5-5-3-|--3---3-3/6-6----6-6-6-------|
-----------3---3-3--3-3-3-1-|--1---1-1/4-4----4-4-4-1-4---|


                                                                              
-----------------------------|----------------------------|------------------|
-----------------------------|----------------------------|------------------|
--3---3-3-0------------------|----------------------------|------------------|
--3---3-3-0-5---5-5--5-5-5\3-|--3---3-3/-6----6-6-6-6-6---|------------------|
--1---1-1-0-5---5-5--5-5-5\3-|--3---3-3/-6----6-6-6-6-6---|------------------|
------------3---3-3--3-3-3\1-|--1---1-1/-4----4-4-4-4-4-0-|------------------|


                                                         
------------------|------------------|------------------|
------------------|------------------|------------------|
------------------|------------------|------------------|
------------------|------------------|------------------|
------------------|------------------|------------------|
------------------|------------------|------------------|


                                                          
--1---1-1--x-0-2---2-2--x-x-|----------x------2------0---|
--3---3-3--x-0-2---2-2--x-x-|--8----8--x------4-4----2-2-|
--3---3-3--x-0-3---3-3--x-x-|--8----8--x-8-4--4-4-2--2-2-|
--3---3-3--x-0-4---4-4--x-x-|--8----8--x-8-4----3-2----2-|
--1---1-1------4---4-4------|--6----6----6-2------0------|
---------------2---2-2------|----------------------------|


                                                                                
-------1--x-0----------------|-------------------------------------------------|
-------3--x-0-2-2-2-2-2--x-x-|--8-8-8-8-8--8-8---------------------------------|
--3----3--x-0-3-3-3-3-3--x-x-|--8-8-8-8-8--8-8-4-4-4-4-4-4-4-4-7-7-7-7-7-7-7-7-|
--3-----------4-4-4-4-4--x-x-|--8-8-8-8-8--8-8-4-4-4-4-4-4-4-4-7-7-7-7-7-7-7-7-|
--1-----------4-4-4-4-4--x-x-|--6-6-6-6-6--6-6-2-2-2-2-2-2-2-2-5-5-5-5-5-5-5-5-|
--------------2-2-2-2-2--x-x-|-------------------------------------------------|


                                                             
----------------------------|-------------------------------|
----------------------------|-------------------------------|
--3---3-3--3----------------|--3---3-3-3-3-3----------------|
--3---3-3--3--5--5-5-5--5-5-|--3---3-3-3-3-3-5--5-5-5-5-5-5-|
--1---1-1--1--5--5-5-5--5-5-|--1---1-1-1-1-1-5--5-5-5-5-5-5-|
--------------3--3-3-3--3-3-|----------------3--3-3-3-3-3-3-|


                                                               
------------------------------|-------------------------------|
------------------------------|-------------------------------|
--3---3-3--3-3----------------|--3---3-3-3-3-3----------------|
--3---3-3--3-3-5--5-5-5-5-5-5-|--3---3-3-3-3-3-5--5-5-5-5-5-5-|
--1---1-1--1-1-5--5-5-5-5-5-5-|--1---1-1-1-1-1-5--5-5-5-5-5-5-|
---------------3--3-3-3-3-3-3-|----------------3--3-3-3-3-3-3-|


                                                              
------------------------------|------------------------------|
--5--5-5-5--5-8--8-8-8-8--8-8-|--5--5-5-5--5-8--8-8-8-8--8-8-|
--5--5-5-5--5-8--8-8-8-8--8-8-|--5--5-5-5--5-8--8-8-8-8--8-8-|
--5--5-5-5--5-8--8-8-8-8--8-8-|--5--5-5-5--5-8--8-8-8-8--8-8-|
--3--3-3-3--3-6--6-6-6-6--6-6-|--3--3-3-3--3-6--6-6-6-6--6-6-|
------------------------------|------------------------------|


                                                             
----------------------------|-------------------------------|
----------------------------|-------------------------------|
--3---3-3--3----------------|--3---3-3-3-3-3----------------|
--3---3-3--3--5--5-5-5--5-5-|--3---3-3-3-3-3-5--5-5-5-5-5-5-|
--1---1-1--1--5--5-5-5--5-5-|--1---1-1-1-1-1-5--5-5-5-5-5-5-|
--------------3--3-3-3--3-3-|----------------3--3-3-3-3-3-3-|


                                                               
------------------------------|-------------------------------|
------------------------------|-------------------------------|
--3---3-3--3-3----------------|--3---3-3-3-3-3----------------|
--3---3-3--3-3-5--5-5-5-5-5-5-|--3---3-3-3-3-3-5--5-5-5-5-5-5-|
--1---1-1--1-1-5--5-5-5-5-5-5-|--1---1-1-1-1-1-5--5-5-5-5-5-5-|
---------------3--3-3-3-3-3-3-|----------------3--3-3-3-3-3-3-|


                                                              
------------------------------|------------------------------|
--5--5-5-5--5-8--8-8-8-8--8-8-|--5--5-5-5--5-8--8-8-8-8--8-8-|
--5--5-5-5--5-8--8-8-8-8--8-8-|--5--5-5-5--5-8--8-8-8-8--8-8-|
--5--5-5-5--5-8--8-8-8-8--8-8-|--5--5-5-5--5-8--8-8-8-8--8-8-|
--3--3-3-3--3-6--6-6-6-6--6-6-|--3--3-3-3--3-6--6-6-6-6--6-6-|
------------------------------|------------------------------|


                                                           
----------------------------|-----------------------------|
----------------------------|-----------------------------|
--3---3-3-------------------|-----------------------------|
--3---3-3--5---5-5--5-5-5-3-|--3---3-3/6-6----6-6-6-----0-|
--1---1-1--5---5-5--5-5-5-3-|--3---3-3/6-6----6-6-6-------|
-----------3---3-3--3-3-3-1-|--1---1-1/4-4----4-4-4-1-4---|


                                                                               
-----------------------------|----------------------------|-------------------|
-----------------------------|----------------------------|-------------------|
--3---3-3-0------------------|----------------------------|--8b---------------|
--3---3-3-0-5---5-5--5-5-5\3-|--3---3-3/-6----6-6-6-6-6---|-------------------|
--1---1-1-0-5---5-5--5-5-5\3-|--3---3-3/-6----6-6-6-6-6---|-------------------|
------------3---3-3--3-3-3\1-|--1---1-1/-4----4-4-4-4-4-0-|-------------------|


                                                     
----------------------|-----------------------------|
----------------------|-----------------------------|
--8r-----0-6-6r-------|--6----6h8-6-8b--8-----6-8-8b|
----------------------|-------------------6h8-------|
----------------------|-----------------------------|
----------------------|-----------------------------|


                                                           
----------------------------|-----------------------------|
----------------------------|----------------8----8h9-8-9r|
---8~-6-8---6-8-8r-6-8-8----|--10r------10-----10---------|
-------------------------0--|-----------------------------|
----------------------------|-----------------------------|
----------------------------|-----------------------------|


                                                    
---------------------------|-----------------------|
------9h11-11b---11b-------|--11r--------------8---|
---------------------------|------------6----6-----|
----0----------------------|-----------------------|
---------------------------|-----------------------|
---------------------------|-----------------------|


                                                                             
-----------------------------------------------|----------------------------|
--8----8--7--6---------------------------------|----------------------------|
-----6---------4-4-4-4-4-4-4-4-7-7-7-7-7-7-7-7-|--3---3-3--3----------------|
---------------4-4-4-4-4-4-4-4-7-7-7-7-7-7-7-7-|--3---3-3--3--5--5-5-5--5-5-|
---------------2-2-2-2-2-2-2-2-5-5-5-5-5-5-5-5-|--1---1-1--1--5--5-5-5--5-5-|
-----------------------------------------------|--------------3--3-3-3--3-3-|


                                                               
-------------------------------|------------------------------|
-------------------------------|------------------------------|
--3---3-3-3-3-3----------------|--3---3-3--3-3----------------|
--3---3-3-3-3-3-5--5-5-5-5-5-5-|--3---3-3--3-3-5--5-5-5-5-5-5-|
--1---1-1-1-1-1-5--5-5-5-5-5-5-|--1---1-1--1-1-5--5-5-5-5-5-5-|
----------------3--3-3-3-3-3-3-|---------------3--3-3-3-3-3-3-|


                                                               
-------------------------------|------------------------------|
-------------------------------|--5--5-5-5--5-8--8-8-8-8--8-8-|
--3---3-3-3-3-3----------------|--5--5-5-5--5-8--8-8-8-8--8-8-|
--3---3-3-3-3-3-5--5-5-5-5-5-5-|--5--5-5-5--5-8--8-8-8-8--8-8-|
--1---1-1-1-1-1-5--5-5-5-5-5-5-|--3--3-3-3--3-6--6-6-6-6--6-6-|
----------------3--3-3-3-3-3-3-|------------------------------|


                                                            
------------------------------|----------------------------|
--5--5-5-5--5-8--8-8-8-8--8-8-|----------------------------|
--5--5-5-5--5-8--8-8-8-8--8-8-|--3---3-3--3----------------|
--5--5-5-5--5-8--8-8-8-8--8-8-|--3---3-3--3--5--5-5-5--5-5-|
--3--3-3-3--3-6--6-6-6-6--6-6-|--1---1-1--1--5--5-5-5--5-5-|
------------------------------|--------------3--3-3-3--3-3-|


                                                               
-------------------------------|------------------------------|
-------------------------------|------------------------------|
--3---3-3-3-3-3----------------|--3---3-3--3-3----------------|
--3---3-3-3-3-3-5--5-5-5-5-5-5-|--3---3-3--3-3-5--5-5-5-5-5-5-|
--1---1-1-1-1-1-5--5-5-5-5-5-5-|--1---1-1--1-1-5--5-5-5-5-5-5-|
----------------3--3-3-3-3-3-3-|---------------3--3-3-3-3-3-3-|


                                                               
-------------------------------|------------------------------|
-------------------------------|--5--5-5-5--5-8--8-8-8-8--8-8-|
--3---3-3-3-3-3----------------|--5--5-5-5--5-8--8-8-8-8--8-8-|
--3---3-3-3-3-3-5--5-5-5-5-5-5-|--5--5-5-5--5-8--8-8-8-8--8-8-|
--1---1-1-1-1-1-5--5-5-5-5-5-5-|--3--3-3-3--3-6--6-6-6-6--6-6-|
----------------3--3-3-3-3-3-3-|------------------------------|


                                                              
------------------------------|------------------------------|
--5--5-5-5--5-8--8-8-8-8--8-8-|--5--5-5-5--5-8--8-8-8-8--8-8-|
--5--5-5-5--5-8--8-8-8-8--8-8-|--5--5-5-5--5-8--8-8-8-8--8-8-|
--5--5-5-5--5-8--8-8-8-8--8-8-|--5--5-5-5--5-8--8-8-8-8--8-8-|
--3--3-3-3--3-6--6-6-6-6--6-6-|--3--3-3-3--3-6--6-6-6-6--6-6-|
------------------------------|------------------------------|


                                                              
------------------------------||-----------------------------|
--5--5-5-5--5-8--8-8-8-8--8-8-||-----------------------------|
--5--5-5-5--5-8--8-8-8-8--8-8-||*--3---3-3-------------------|
--5--5-5-5--5-8--8-8-8-8--8-8-||*--3---3-3--5---5-5--5-5-5-3-|
--3--3-3-3--3-6--6-6-6-6--6-6-||---1---1-1--5---5-5--5-5-5-3-|
------------------------------||------------3---3-3--3-3-3-1-|


                                                     
------------------------------||-------------------||
------------------------------||-------------------||
-----------------------------*||-------------------||
--3---3-3/6-6----6-6-6-------*||--8\---------------||
--3---3-3/6-6----6-6-6--------||--8\---------------||
--1---1-1/4-4----4-4-4-1-4-5--||--6\---------------||





Comments


Popular Nirvana tabs & chords
Been A Son Bass Tabs
Dive 2 Bass Tabs
Junkyard Bass Tabs
Lake Of Fire 2 Bass Tabs
Dive Chords
In Bloom 1 Chords
Even In His Youth 1 Tabs
Love Buzz Tabs
Pennyroyal Tea Tabs
In Bloom Ukulele


Song lyrics



↑ Back to top | Tablatures and chords are parodies/interpretations of the original songs. You may use it for private study, scholarship, research or language learning purposes only
© 2014 AZChords.com Contact us | Privacy policy | DMCA | Add/correct tabs | Request tabs | Top 50 tabs