>
 >
Prehistoric 1

Prehistoric 1 Guitar Tabs

Now Now - Prehistoric 1 chords, tabs, tablatures, lyrics

Guitar lessons | Add/correct | Request | Top 50 tabs Artists:  A B C D E F G H I J K L M N O P Q R S T U V W X Y Z 0-9

Prehistoric 1 Guitar Tabs – Now Now

CD, Sheet music, Poster

Do you like Prehistoric 1? Share with your friends now
ChordsTabsTabs v2
Prehistoric // Now, Now


READ FIRST: Hey, this my first tab on this site.
It is VERY IMPORTANT to tune your guitar to DADF#Be or it will not sound good haha.
I'm pretty sure this is like 99.9% correct though.
Have fun!

Intro/Verse: "I know this will mess things up tonight"

E |---------------------------------------|
B |---------------------------------------|
F#|---------------------------------------|
D |--2-2-2-2-2-2-2-2-2-2-2-2-2-2-2-2------|    x4
A |--0-0-0-0-0-0-0-0-0-0-0-0-0-0-0-0------|
D |--0-0-0-0-0-0-0-0-2-2-2-4-4-4-4-4------|
    P.M-----------------------------------|

____________________________________________________________
Guitar Break: A+B+A+B

Part A

E |--0-0-0-0-0-0-0-0-12-12-12-12-12-12-12-12--|
B |--7-7-7-7-9-9-9-9-10-10-10-10-10-10-10-10--|
F#|--0-0-0-0-0-0-0-0--0-0-0-0-0-0-0-0-0-0-0---|
D |--7-7-7-7-9-9-9-9-11-11-11-11-11-11-11-11--|
A |-------------------------------------------|
D |-------------------------------------------|

Part B
E |--0-0-0-0-0-0-0-0--0-0-0-0-0-0-0-0-0-0-0----|
B |--7-7-7-7-9-9-9-9-10-10-10-12-12-10-10-10---|
F#|--0-0-0-0-0-0-0-0--0-0-0-0-0-0-0-0-0-0-0----|
D |--7-7-7-7-9-9-9-9-11-11-11-11-11-11-11-11---|
A |--------------------------------------------|
D |--------------------------------------------|
_____________________________________________________________
Chorus: "It may be different now..."

E |---------7------------7------------7------------7---|
B |------10-----------10-----------10-----------10-----|
F#|----7------------7------------7------------7--------|    x4
D |--9------------9------------9------------9----------|
A |----------------------------------------------------|
D |----------------------------------------------------|

_____________________________________________________________
REPEAT Intro/Verse:"I would trade this sleep for you"

E |---------------------------------------|
B |---------------------------------------|
F#|---------------------------------------|
D |--2-2-2-2-2-2-2-2-2-2-2-2-2-2-2-2------|    x4
A |--0-0-0-0-0-0-0-0-0-0-0-0-0-0-0-0------|
D |--0-0-0-0-0-0-0-0-2-2-2-4-4-4-4-4------|
    P.M-----------------------------------|
_______________________________________________________________
Pre-Chorus: "But I know if I turn around.."

   Let Ring - - - - - - - - - - - - - - - - - - - - |
E |--------------------------------------------------|
B |--------------------------------------------------|
F#|--------------------------------------------------|   x2
D |--0-----------------------------------------------|
A |--0-------------------------------0------0--------|
D |--0----------------------------2------4-----------|
________________________________________________________________
Chorus: "It may be different now..."

E |---------7------------7------------7------------7---|
B |------10-----------10-----------10-----------10-----|
F#|----7------------7------------7------------7--------|    x4
D |--9------------9------------9------------9----------|
A |----------------------------------------------------|
D |----------------------------------------------------|
________________________________________________________________
Bridge: "Stuck like those prehistoric mammoths in the ice"

E |----------------------------------|
B |----------------------------------|
F#|----------------------------------|
D |--2-2-2-2-2-2-2-2-2-2-2-2-2-2-2-2-|    x4
A |--4-4-4-4-0-0-0-0-4-4-4-4-0-0-0-0-|
D |--4-4-4-4-0-0-0-0-4-4-4-4-0-0-0-0-|

Extra Bridge

E |----------|
B |----------|
F#|----------|
D |--2-2-2-2-|
A |--0-0-0-0-|
D |--0-0-0-0-|
_________________________________________________________________
REPEAT Guitar Break: A+B+A+B

Part A

E |--0-0-0-0-0-0-0-0-12-12-12-12-12-12-12-12--|
B |--7-7-7-7-9-9-9-9-10-10-10-10-10-10-10-10--|
F#|--0-0-0-0-0-0-0-0--0-0-0-0-0-0-0-0-0-0-0---|
D |--7-7-7-7-9-9-9-9-11-11-11-11-11-11-11-11--|
A |-------------------------------------------|
D |-------------------------------------------|

Part B
E |--0-0-0-0-0-0-0-0--0-0-0-0-0-0-0-0-0-0-0----|
B |--7-7-7-7-9-9-9-9-10-10-10-12-12-10-10-10---|
F#|--0-0-0-0-0-0-0-0--0-0-0-0-0-0-0-0-0-0-0----|
D |--7-7-7-7-9-9-9-9-11-11-11-11-11-11-11-11---|
A |--------------------------------------------|
D |--------------------------------------------|
_________________________________________________________________
REPEAT Pre-Chorus:

   Let Ring - - - - - - - - - - - - - - - - - - - - |
E |--------------------------------------------------|
B |--------------------------------------------------|
F#|--------------------------------------------------|   x2
D |--0-----------------------------------------------|
A |--0-------------------------------0------0--------|
D |--0----------------------------2------4-----------|

   Let Ring - - - - - - |
E |---------------------|
B |---------------------|
F#|---------------------|
D |--0------------------|
A |--0------------------|
D |--0------------------|





Comments


Popular Now Now tabs & chords
Sleep Through Summer Chords
Thread Chords
But I Do Tabs
Dead Oaks Tabs
Dead Oaks 1 Tabs
Neighbors Tabs
Prehistoric Tabs
Separate Rooms Tabs
Sleep Through Summer Ukulele
Thread Ukulele


Song lyrics



↑ Back to top | Tablatures and chords are parodies/interpretations of the original songs. You may use it for private study, scholarship, research or language learning purposes only
© 2014 AZChords.com Contact us | Privacy policy | DMCA | Add/correct tabs | Request tabs | Top 50 tabs