» » »

Helter Skelter Chords (ver.1)

Artists:  A B C D E F G H I J K L M N O P Q R S T U V W X Y Z # 

Helter Skelter Chords (ver.1)

Oasis
Rating:
0/5 (0 votes)

Tabs too difficult? Try these video lessons and learn fast.
                
----TUNING: Drop D-----

Verse:

E-----------------------|
B----0-----0-----0------|
G----7-----6-----5------|
D-----------------------|
A-----------------------|
D-----------------------|

When I get to the bottom I go back to the top of the slide

Where I stop and turn and I go for a ride
                                         F
Till I get to the bottom and I see you again 
             D5
Yeah, yeah, yeah


D5
Do you don't you want me to love you

I'm coming down fast but I'm miles above you
F
Tell me tell me come on tell me the answer
G                                          
and you may be a lover but you ain't no dancer D5


G
Go helter skelter
D5
helter skelter
G
helter skelter
D5
Yeah, hu, hu

Chorus Riff:

   G                   D5
E-----------------------------------------|
B-----------------------------------------|
G-----------------------------------------|
D----3-2-0--------------------------------|
A----------3-2-0-----------3-2-0----------|
D----------------5---------------5-4-2-0--|


[The rest of the song is the same]

Just stay in D5 everywhere else. (solo, outro, fancy stuff)
            
Tabs too difficult? Try these video lessons and learn fast.




comments powered by Disqus
↑ Back to top | Tablatures and chords are parodies/interpretations of the original songs. You may use it for private study, scholarship, research or language learning purposes only