>
 >
Some Might Say 3

Some Might Say 3 Guitar Tabs

Oasis - Some Might Say 3 chords, tabs, tablatures, lyrics

Guitar lessons | Add/correct | Request | Top 50 tabs Artists:  A B C D E F G H I J K L M N O P Q R S T U V W X Y Z 0-9

Some Might Say 3 Guitar Tabs – Oasis

CD, Sheet music, Poster

Do you like Some Might Say 3? Share with your friends now
Bass TabsChordsChords v2TabsTabs v2Tabs v3Tabs v4
-------------------------------------------------------------------------------
-------------------------------------------------------------------------------

Tuning:Standard (1e 2B 3G 4D 5A 6E)

Intro
e|--------------------------------------------------------------------------|
B|-----------------------------------------2-2-----2------------------------|
G|---------------------------------2/4---------4-----4----------------------|
D|---7---9---7---9-7-7-9---7---7---2/4-4---------4-----4---4/5-5------------|
A|---5-5-5-5-5-5-5-5-5-5-5-5-5-5---0/2-2-------------------4/5-5------------|
E|---------------------------------------------------------2/3-3------------|

e|--3-----------------------------------------------------------------------|
B|----3-7---------5-----------2-3-2-3-2---3-3-------------------------------|
G|------7---7-------7---4\2---2-2-2-2-2---2-2-------------------------------|
D|------7-----7-------7-4\2---2-4-2-4-2---4-4-------------------------------|
A|------5---------------0-----0-0-0-0-0---0-0-------------------------------|
E|--------------------------------------------------------------------------|

Intro Solo
e|--------------------------------------------------------------------------|
B|--------------------7-------------------------------8--7-8-7--------------|
G|-9bf--9-7-9-7--9bf----9-7---------7-9-9bf--7-7h9--7-9--7-9-7--------------|
D|--------------------------9-7-7h9-----------------------------------------|
A|--------------------------------------------------------------------------|
E|--------------------------------------------------------------------------|

e|--------------------------------------------------------------------------|
B|-10-10-8-7--8-7-8----10----12--10-12-10-----------------------------------|
G|-11-11-9-7--9-7-9-11----11------------------------------------------------|
D|--------------------------------------------------------------------------|
A|--------------------------------------------------------------------------|
E|--------------------------------------------------------------------------|

Verse 1
e|-2--2--2-2-2-2--2--2--2-2-2-2---2--2--2-2-2-2--2--2--2-2-2-2--------------|
B|-3--3--3-3-3-3--3--3--3-3-3-3---3--3--3-3-3-3--3--3--3-3-3-3--------------|
G|-2--2--2-2-2-2--2--2--2-2-2-2---4--4--4-4-4-4--4--4--4-4-4-4--------------|
D|-0--0--0-0-0-0--0--0--0-0-0-0---4--4--4-4-4-4--4--4--4-4-4-4--------------|
A|--------------------------------2--2--2-2-2-2--2--2--2-2-2-2--------------|
E|--------------------------------------------------------------------------|

e|-3--3--3-3-3-2--2--2--2-2-2-2---0--0--0-0-0-0--0--0--0-0-0-0--------------|
B|-3--3--3-3-3-3--3--3--3-3-3-3---2--2--2-2-2-2--2--2--2-2-2-2--------------|
G|-0--0--0-0-0-2--2--2--2-2-2-2---2--2--2-2-2-2--2--2--2-2-2-2--------------|
D|-0--0--0-0-0-0--0--0--0-0-0-0---2--2--2-2-2-2--2--2--2-2-2-2--------------|
A|-2--2--2-2-2--------------------0--0--0-0-0-0--0--0--0-0-0-0--------------|
E|-3--3--3-3-3--------------------------------------------------------------|

e|-2--2--2-2-2-2--2--2--2-2-2-2---2--2--2-2-2-2--2--2--2-2-2-2--------------|
B|-3--3--3-3-3-3--3--3--3-3-3-3---3--3--3-3-3-3--3--3--3-3-3-3--------------|
G|-2--2--2-2-2-2--2--2--2-2-2-2---4--4--4-4-4-4--4--4--4-4-4-4--------------|
D|-0--0--0-0-0-0--0--0--0-0-0-0---4--4--4-4-4-4--4--4--4-4-4-4--------------|
A|--------------------------------2--2--2-2-2-2--2--2--2-2-2-2--------------|
E|--------------------------------------------------------------------------|

e|-3--3--3-3-3-2--2--2--2-2-2-2---0--0--0-0-0-0--0--0--0-0-0-0--------------|
B|-3--3--3-3-3-3--3--3--3-3-3-3---2--2--2-2-2-2--2--2--2-2-2-2--------------|
G|-0--0--0-0-0-2--2--2--2-2-2-2---2--2--2-2-2-2--2--2--2-2-2-2--------------|
D|-0--0--0-0-0-0--0--0--0-0-0-0---2--2--2-2-2-2--2--2--2-2-2-2--------------|
A|-2--2--2-2-2--------------------0--0--0-0-0-0--0--0--0-0-0-0--------------|
E|-3--3--3-3-3--------------------------------------------------------------|

Pre Chorus
e|-0--0--0-0-0-3--3--3--3-3-3-3---2--2--2-2-2-2--2--2--2-2-2-2--------------|
B|-0--0--0-0-0-3--3--3--3-3-3-3---3--3--3-3-3-3--3--3--3-3-3-3--------------|
G|-0--0--0-0-0-0--0--0--0-0-0-0---2--2--2-2-2-2--2--2--2-2-2-2--------------|
D|-2--2--2-2-2-0--0--0--0-0-0-0---0--0--0-0-0-0--0--0--0-0-0-0--------------|
A|-2--2--2-2-2-2--2--2--2-2-2-2---------------------------------------------|
E|-0--0--0-0-0-3--3--3--3-3-3-3---------------------------------------------|

e|-0--0--0-0-0-0--0--0--0-0-0-0---3--3--3-3-3-3--3--3--3-3-3-3--------------|
B|-0--0--0-0-0-1--1--1--1-1-1-1---3--3--3-3-3-3--3--3--3-3-3-3--------------|
G|-0--0--0-0-0-0--0--0--0-0-0-0---0--0--0-0-0-0--0--0--0-0-0-0--------------|
D|-2--2--2-2-2-2--2--2--2-2-2-2---0--0--0-0-0-0--0--0--0-0-0-0--------------|
A|-2--2--2-2-2-3--3--3--3-3-3-3---2--2--2-2-2-2--2--2--2-2-2-2--------------|
E|-0--0--0-0-0--------------------3--3--3-3-3-3--3--3--3-3-3-3--------------|

Chorus x4
e|-2-2-2-2-3-3-3-3-0-0-0-3--3-3-3-2-2-2-2-3-3-3-3-0-0-0-3--3-3-3------------|
B|-3-3-3-3-3-3-3-3-0-0-0-3--3-3-3-3-3-3-3-3-3-3-3-0-0-0-3--3-3-3------------|
G|-2-2-2-2-0-0-0-0-0-0-0-0--0-0-0-2-2-2-2-0-0-0-0-0-0-0-0--0-0-0------------|
D|-0-0-0-0-0-0-0-0-2-2-2-0--0-0-0-0-0-0-0-0-0-0-0-2-2-2-0--0-0-0------------|
A|---------2-2-2-2-2-2-2-2--2-2-2-2-------2-2-2-2-2-2-2-2--2-2-2------------|
E|---------3-3-3-3-0-0-0-0--3-3-3-3-------3-3-3-3-0-0-0-0-------------------|

Bridge
e|------------------------------------------------------10--12--------------|
B|-7---------------------------------------------10--12---------------------|
G|-----9--7---9-9bf--7-7-----7--9bf--7-7--7-9/11----------------------------|
D|-------------------------9------------------------------------------------|
A|--------------------------------------------------------------------------|
E|--------------------------------------------------------------------------|

Solo 2
e|--------------------------------------------------------------------------|
B|----------------------------------8-7--8-10-10-8-7--8-7-8--7-8-7----------|
G|-----7----7---7-9-9bf--7-9--7-9-7-9-7--9-11-11-9-7--9-7-9--7-9-7----------|
D|-7h9----9---9-------------------------------------------------------------|
A|--------------------------------------------------------------------------|
E|--------------------------------------------------------------------------|

e|--------------------------------------------------------------------------|
B|-----10-8-7-8-7-8-7-10-10-8-7-8-7-8-7--8--10-7--8--7-10-10--8--7----------|
G|-/11----9-7-9-7-9-7-11-11-9-7-9-7-9-7--9--11-7--9--7-11-11--9--7----------|
D|--------------------------------------------------------------------------|
A|--------------------------------------------------------------------------|
E|--------------------------------------------------------------------------|

Verse 2    can play these chords while waiting to do verse bit
   D  D  D D D D   D D  D   D D D D
e|---------------------------------------------------------------------------|
B|---------------------------------------------------------------------------|
G|---------------------------------------7--7-9bf--7-7h9--7--9-9-7-----------|
D|-----------------------------------7h9-------------------------------------|
A|---------------------------------------------------------------------------|
E|---------------------------------------------------------------------------|

   G  G  G G G D   D D  D   D D D D
e|---------------------------------------------------------------------------|
B|---------------------------------------------------------------------------|
G|---------------------------------------7-7-7----7-9bf--9-9-9-9bf-9-7h9-7---|
D|-----------------------------------7h9--------9----------------------------|
A|---------------------------------------------------------------------------|
E|---------------------------------------------------------------------------|

   D  D  D D D D   D D  D   D D D D
e|-------------------------------------------------------7-------------------|
B|-------------------------------------------------------7-------------------|
G|-----------------------------------9bf--7-------7-9bf----9-7-9-7-9-7-------|
D|------------------------------------------9-7-9----------------------------|
A|---------------------------------------------------------------------------|
E|---------------------------------------------------------------------------|

   G  G  G G G D   D D  D   D D D D
e|---------------------------------------------------------------------------|
B|---------------------------------------------------------------------------|
G|-----------------------------------9bf--9bf-9bf-9bf-9bf-9bf-9bf-9bf-9bf--7-|
D|---------------------------------------------------------------------------|
A|---------------------------------------------------------------------------|
E|---------------------------------------------------------------------------|

Pre Chorus

   Em  Em  Em Em Em G   G  G   G G G G  D
e|------------------------------------------------------------7-------------|
B|--------------------------------------------------------------------------|
G|-----------------------------------------9bf--9-7-9-7--9bf----9-7-9-7-----|
D|--------------------------------------------------------------------------|
A|--------------------------------------------------------------------------|
E|--------------------------------------------------------------------------|

e|-------------------------------------------7------7------7------7---------|
B|-------------7------------------------------------------------------------|
G|-------------------------------9-7----9bf----9bf----9bf----9bf----9bf-9---|
D|--------------------------------------------------------------------------|
A|--------------------------------------------------------------------------|
E|--------------------------------------------------------------------------|

Chorus
e|--------------------------------------------------------------------------|
B|--------------------------------------------------------------------------|
G|-7------------------------------------------------------------------------|
D|--------------------------------------------------------------------------|
A|--------------------------------------------------------------------------|
E|--------------------------------------------------------------------------|

e|-2-2-2-2-3-3-3-3-0-0-0-3--3-3-3-2-2-2-2-3-3-3-3-0-0-0-3--3-3-3-------------|
B|-3-3-3-3-3-3-3-3-0-0-0-3--3-3-3-3-3-3-3-3-3-3-3-0-0-0-3--3-3-3-------------|
G|-2-2-2-2-0-0-0-0-0-0-0-0--0-0-0-2-2-2-2-0-0-0-0-0-0-0-0--0-0-0-------------|x8
D|-0-0-0-0-0-0-0-0-2-2-2-0--0-0-0-0-0-0-0-0-0-0-0-2-2-2-0--0-0-0-------------|
A|---------2-2-2-2-2-2-2-2--2-2-2-2-------2-2-2-2-2-2-2-2--2-2-2-------------|
E|---------3-3-3-3-0-0-0-0--3-3-3-3-------3-3-3-3-0-0-0-0--------------------|

Outro
e|--------------------------------------------------------------------------|
B|--------------------------------------------------------------------------|
G|--------------------------------------------------------------------------|
D|--------------------------------------------------------------------------|
A|-----9--7-5------5---5--9--5--9--7-5------5---5--9bf--7-------------------|
E|-------------5/7---7------------------5/7---7-----------------------------|

e|--------------------------------------------------------------------------|
B|--------------------------------------------------------------------------|
G|----------------------------------------------7--9bf--7-------------------|
D|------------------------------------------7-9-----------------------------|
A|-----9--7-5------5---5--9--5--9--7-5--7/9---------------------------------|
E|-------------5/7---7------------------------------------------------------|

e|--------------------------------------------------------------------------|
B|--------------------------------------------------------------------------|
G|---7-9bf--9-7-------7---7--9bf--7--7-9bf--9-7------7---7--9bf--7----------|
D|----------------7h9---9------------------------7h9---9--------------------|
A|--------------------------------------------------------------------------|
E|--------------------------------------------------------------------------|

e|--------------------------------------------------------------------------|
B|--------------------------------------------------------------------------|
G|---7-9bf--9-7-------7---7--9bf--7--7-9bf--9-7--7--9bf--9-9bf-7--X\--------|
D|----------------7h9---9---------------------------------------------------|
A|--------------------------------------------------------------------------|
E|--------------------------------------------------------------------------|

| /  slide up
| \  slide down
| h  hammer-on
| X  Mute note
| bf Bend full
===============================================================================





Comments


Popular Oasis tabs & chords
Carry Us All 1 Chords
Dont Look Back In Anger Chords
Dont Look Back In Anger 3 Chords
Dont Look Back In Anger Live Chords
Got To Get You Into My Life Chords
Listen Up 4 Chords
Master Plan Chords
Let There Be Love Tabs
Life In Vain 2 Tabs
My Big Mouth 1 Tabs


Song lyrics



↑ Back to top | Tablatures and chords are parodies/interpretations of the original songs. You may use it for private study, scholarship, research or language learning purposes only
© 2014 AZChords.com Contact us | Privacy policy | DMCA | Add/correct tabs | Request tabs | Top 50 tabs