» » »

Get Away Tabs (ver.1)

Artists:  A B C D E F G H I J K L M N O P Q R S T U V W X Y Z # 

Get Away Tabs (ver.1)

Ocean Colour Scene
Rating:
0/5 (0 votes)

Tabs too difficult? Try these video lessons and learn fast.
                -------------------------------------------------------------------------------
-------------------------------------------------------------------------------

Tuning: Drop D

Acoustic Riff 1 - This is played throughout the song (Mainly the verse), it varies at 
with different chord decorations here and there, however this is essentially it:

    D        D/C D/B   D/C     D   D/C D/B   D/C
e|------------------------------------------------|
B|---------3---3---3-----3-------3---3---3-----3--|
G|---------2---2---2-----2-------2---2---2-----2--|
D|-------------------------2h4-0------------------|
A|-----------3---2---2h3-----------3---2---2h3----|
D|--0-3p0-----------------------------------------|

Verse 1:
       D            D/C                  D/B             D/C
Well I used to be a listener - there was nothing left to get
D              D/C              D/B          D/C
About what you are and what you haven't been yet
    D                    D/C          D/B              D/C
and some of them like to tell a story that is long and old
    D             D/C                D/B
and couch it in indifference and the wine
               D/C          D
that they were sold to get away


Acoustic Solo over Verse 1:
e|-------------------------------------------------|
B|--10/13-13\10-10\8-8\6-6/8-6-----6---------------|
G|-----------------------------7~----7-5-----------|
D|---------------------------------------7-5-------|
A|-------------------------------------------8-5~--|
D|-------------------------------------------------|

Chorus 1 - strum the chords as normal, plus a second guitar plays this:
    D       D/C     D/B     D/C     D       D/C     D/B     D/C
e|------3-2-----3-2-----3-2-----3-2-----3-2-----3-2-----3-2~---1-------------|
B|----3-------3-------3-------3-------3-------3-------3----------3-1---------|
G|-------------------------------------------------------------------2-0-----|
D|--0-------------------------------0------------------------------------3~--|
A|----------3-------2-------3---------------3-------2------------------------|
D|---------------------------------------------------------------------------|

Verse 2:
Well someone's got to tell them that its not deserved,
rehearsed or written down by playwrights over time
just picking up on a nerve.
And some of them got a difference that they reserve for you
Well I like them all but I don't trust any of them
well shouldn't you, just get away

Acoustic Solo over Verse 2:
e|-----------------------------------------------|
B|-----------------------------------------------|
G|-----------------------------------------------|
D|--0-3p0----------------3p0--5p0-6p0-7p0--10p0--|
A|--------3p0--------3/5-------------------------|
D|------------3p0-0------------------------------|

e|---------3/5-5h8-8p5--8---------------------|
B|--1-1h3-----------------10-9-8--------------|
G|-------------------------------10--7~-5h7~--|
D|--------------------------------------------|
A|--------------------------------------------|
D|--------------------------------------------|

(Chorus 2)


Distortion kicks in at the end of the Chorus, over the top of verse 3:
e|--------------------------------------------|
B|--7--5--4--3--x-x-x-x--7--5--4--3--x-x-x-x--|
G|--7--5--4--3--x-x-x-x--7--5--4--3--x-x-x-x--| x2
D|--7--5--4--3--x-x-x-x--7--5--4--3--x-x-x-x--|
A|--5--3--2--1--x-x-x-x--5--3--2--1--x-x-x-x--|
D|--------------------------------------------|
                Wah Wah              Wah Wah
Verse 3:
Well I used to think my freedom was a lot of things I'd give,
demanding on my time but I had so much time to give,
and I used to think that everything was a knee in what you are.
But finding out the truth that hurts
so I never went that far
I always get away

Guitar Solo over Chorus 3:
e|--------------------------------------------------------------------------|
B|--8b10-8b10-8p6---6---------6-----------------------------------6-6-------|
G|----------------7---5/7\5-7---7-5---------------------------5-7-----5-7~--|
D|----------------------------------7-5---------------3-5-6-7---------------|
A|--------------------------------------8-5-5/8-5-3-5-----------------------|
D|--------------------------------------------------------------------------|

e|--------------------------13----8------------------------------------------|
B|--------8/10-10--13-13-13----15---10-9-8----------------------10-------10--|
G|--5-5/7----------------------------------10-7--10-7-10--12b14----12b14-----|
D|---------------------------------------------------------------------------|
A|---------------------------------------------------------------------------|
D|---------------------------------------------------------------------------|

e|------------------------------------------------------------------|
B|--------10-------10-------------------------10-13-13-13/15~-------|
G|--12b14----12b14----14r12p10-12p10----10h12-----------------10~~--|
D|-----------------------------------12-----------------------------|
A|------------------------------------------------------------------|
D|------------------------------------------------------------------|
    TP...............

Let ring at end of solo, acoustic riff played of verse 4
Verse 4:
Well it comes down to the fact that I'm now different from the past,
demanding all my ideals its just trying to make them last,
and some of the things that you say they're ringing home so true,
I hang my head out of the door and I follow you,
yes I follow you and get away

Distortion back in over Chorus 4:
e|----------------------------------|
B|----------------------------------|
G|----7----5-5-5-5-4-4-4-4-3-3-2-2--|
D|----7----5-5-5-5-4-4-4-4-3-3-2-2--| x5
A|-0--5----3-3-3-3-2-2-2-2-1-1-0-0--|
D|-0-----0--------------------------|

Guitar solo after Chorus 4; uses volume control foot pedal to play with sound.
e|------------------------------------------------------------------|
B|--b13-r13-13-13/10-10/8-8/6-6\8/6---------------------------------|
G|----------------------------------7-5h7-5---------------------7~--|
D|------------------------------------------7/5-3----3--------------|
A|------------------------------------------------5~---3-3-3-5~-5~--|
D|------------------------------------------------------------------|

Followed by lots of crazy mental noises made on guitar and whatever,
The acoustic guitar comes back in played a Dsus2,
Then the acoustic riff begins again with various chords decorations.

I’ll tab the small acoustic solo over the rhythm and guitar noise:
e|---------------------------------------------------------------------------|
B|---------------------------------------------------------------------------|
G|--12-10-12----------10-----------------------------------------------------|
D|-----------10h12-12----12-10h12-10/12-10h12------------10-11-12------------|
A|---------------------------------------------10-11-12------------10-11-12--|
D|---------------------------------------------------------------------------|

e|----------------------------------------------------|
B|-------------------------10-----followed by---13~~--|
G|--10-11-12------------10----12--a bang and a--------|
D|------------10-11-12-------------distorted:---------|
A|----------------------------------------------------|
D|----------------------------------------------------|
Now lots of drums guitar and slide noises

Into the Chorus again, clean electric guitar chords:
e|--3-2--|--2--3--3--3--|
B|--3----|--3--3--3--3--|
G|--2----|--2--0--0--0--| repeat 5x
D|--0----|--0--2--0--2--| over chorus
A|-------|-----3--2--3--|
D|-------|--------------|

Electric solo after chorus over acoustic riff:
e|-------------------------10-------10-------10-------10-------10-------10--|
B|--10~-13~--15~~~~--13b15----13b15----13b15----13b15----13b15----13b15-----|
G|--------------------------------------------------------------------------|
D|--------------------------------------------------------------------------|
A|--------------------------------------------------------------------------|
D|--------------------------------------------------------------------------|
Tremolo effect.....

e|--------10-------10--------------------------------------------------------|
B|--13b15----13b15----13b15-13-10----------10-------10-------10-------10-----|
G|--------------------------------13-12-10----13-12----13-12----13-12----13--|
D|---------------------------------------------------------------------------|
A|---------------------------------------------------------------------------|
D|---------------------------------------------------------------------------|

e|------------------------------------------------------------------|
B|-----10-------10--------------------------------------------------|
G|--12----13-12----13-12-10-10~-------------------------5-5h7-7-7~--|
D|-----------------------------------3------------5-6-7-------------|
A|-------------------------------3h5---5-3-3h5--8-------------------|
D|------------------------------------------------------------------|

e|---------------------------------------------|
B|---------------------------------------------|
G|--14~~~~-12b14-14-14-14r12-10--7-5-7---------|
D|-------------------------------------7-6-5/--|
A|---------------------------------------------|
D|---------------------------------------------|
  Wh..................................

Crunchy electric guitar, very decorated
e|--2--3--3--3--|
B|--3--3--3--3--|
G|--2--0--0--0--| x3
D|--0--2--0--2--|
A|-----3--2--3--|
D|--------------|

Whammy bar noises + feedback and then that’s it folks, the song finally ends.
I would have tabbed absolutely everything including all the decoration...
       ...but that would have involved more effort than necessary
              ...its a good song to be creative with...
                     ...so be creative...
                           ...don’t forget to rate me highly...
                                   ...Just_Chaz...

| /  slide up
| \  slide down
| h  hammer-on
| p  pull-off
| ~  vibrato
| +  harmonic
| x  Mute note
| TP Trem pick
| b  Bend note
| r  Release note
| Wh Whammy bar

===============================================================================
            
Tabs too difficult? Try these video lessons and learn fast.




comments powered by Disqus
↑ Back to top | Tablatures and chords are parodies/interpretations of the original songs. You may use it for private study, scholarship, research or language learning purposes only