» » »

Still Ydgn Tabs (ver.2)

Artists:  A B C D E F G H I J K L M N O P Q R S T U V W X Y Z # 

Still Ydgn Tabs (ver.2)

Of Mice And Men
Rating:
5/5 (8 votes)

Tabs too difficult? Try these video lessons and learn fast.
                This is my first tab so don’t get p**sed at me. Its not the whole song but its all
the notes that are used just listen to it. Enjoy :p

|---------------------------------------------------|
|---6-6-6-6------6-6-6-6-------6--------------------|
|---9-9-9-9------9-9-9-9-------9--------------------|
| --------------------------------------------------|
|---------------------------------------------------|
|---------------------------------------------------|


|---------------------------------------------------------|
|---------------------------------------------------------|
|---------------------------------------------------------|
|---------------------------------------------------------|
|--0000---------------------------------------------------|
|--0000---1/13----0-----------------------------| repeat--| 3x
   ****

|------------------------------------------------------|
|------------------------------------------------------|
|------------------------------------------------------|
|------------------------------------------------------|
|--0000----000-----------------------------------------|
|--1111----111-----------------------------------------|after the 3x of above
   ****    ***

|----------------------------------------------------|
|----------------------------------------------------|
|----------------------------------------------------|
|----------------------------------------------------|
|----------------------------------------------------|
|--0000—0000—0000------------------------------------|
pre-breakdown (sick scream by Austin) rest of breakdown is the same

|-----------------------------------------------------|
|-----------------------------------------------------|
|---7(various)-------10(various)---------12(various)--|
|---x--------------------x----------------------x-----|
|---5-------------------8----------------------10-----|
|-----------------------------------------------------|
pre chorus

|----------------------------------------------------------------------------------------|
|----------------------------------------------------------------------------------------|
|---14(various)-----17(various)--------19(various)---------------------------------------|
|---x--------------------x----------------------x----------------------------------------|
|---12-----------------15--------------------17------------------------------------------|
|----------------------------------------------------------------------------------------|
pre- chorus (shayley starts singing)
One guitar


|-------------------------------------------------------------------------------|
|-------------------------------------------------------------------------------|
|-------------------------------------------------------------------------------|
|-------------------------------------------------------------------------------|
|---5-----------5--------5----8---------8---------8-----------------------------|
|---8-8888—8-8888-8—-5-5555-5-5555-5--------------------------------------------|
pre-chorus (also when shayley starts singing)
      ****   ****      ****   ****
Other guitar

|-----------------------------------------------------------------------------|
|-----------------------------------------------------------------------------|
|-----------------------------------------------------------------------------|
|-----------------------------------------------------------------------------|
|---7h8p7---7h8p7---7h8p7-------77777888888-----------------------------------|
|------------0----------0----------0------------------------------------------|
             *          *          *
One guitar

|---------------------------------------------------------------|------------------------|
|---------------------------------------------------------------|------------------------|
|---------------------------------------------------------------|------------------------|
|---5h7p5---5h7p5---5h7p5-------77777888888----|------7----5-----------------------------|
|---------------------------------------------------------------|------ 5-- -3-----------|
|------------0-----------0----------0-------------------------|--------------------------|
             *           *          *
Other guitar
Do it several times before shayley stops singing ohhhh yeahhhh

Chorus
|-----------------------------------------------------------------------------|
|-----------------------------------------------------------------------------|
|-----------------------------------------------------------------------------|
|---8(various)-----5(various)-----0(various)----------------------------------|
|---8-----------------5----------------0--------------------------------------|
|---8-----------------5----------------0--------------------------------------|

|----------------------------------------------------------------------------------------|
|----------------------------------------------------------------------------------------|
|----------------------------------------------------------------------------------------|
|----------------------------------------------------------------------------------------|
|----------------------------------------------------------------------------------------|
|----8(various)---5(various)---0(various)-------12p0---13p0------------------------------|
                                                Listen for timing**




Pre breakdown
|-----------------------------------------------|
|-----------------------------------------------|
|-----------------------------------------------|
|-----------------------------------------------|
|-----------------------------------------------|
|---12p0---13p0---(listen for timing------------|

Breakdown
|--------------------------------------------------------|
|--------------------------------------------------------|
|--------------------------------------------------------|
|--------------------------------------------------------|
|--------------------------------------------------------|
|---0000---0000---0000---0000---0000---------------------| various
    ****   ****   ****   ****   ****

Intro again than followed by pre chorus and chorus and outro lol its literally almost 
the same thing over again.
            
Tabs too difficult? Try these video lessons and learn fast.


comments powered by Disqus
↑ Back to top | Tablatures and chords are parodies/interpretations of the original songs. You may use it for private study, scholarship, research or language learning purposes only