» » »

They Don't Call It The South For Nothing Tabs (ver.1)

Artists:  A B C D E F G H I J K L M N O P Q R S T U V W X Y Z # 

They Don't Call It The South For Nothing Tabs (ver.1)

Of Mice And Men
Rating:
5/5 (3 votes)

Tabs too difficult? Try these video lessons and learn fast.
                The album is great, just figured I'd write out some tabs for it:)
What else to do on a Saturday morning?

Drop D

Intro:
(I'm not exactly sure what the harmonics are; just fool around with those to find them. 
second one is two harmonics at the same time, I believe. My guess is around the high 
fret. But don't quote me.)

Guitar's One & Two:
E---------------------------------------------------------------------------|
B---------------------------------------------------------------------------|
G---------------------------------------------------------------------------|
D---------------------------------------------------------------------------|
A---------------------------------------------------------------------------|
D-8/--7-10-0-5-0--7-10-0-5-0--7-10-0-5-0--7-10-0-3--------------------------|

E---------------------------------------------------------------------------|
B---------------------------------------------------------------------------|
G---------------------------------------------------------------------------|
D---------------------------------------------------xxxx--------------------|
A---------------------------------------------------xxxx--------------------|
D-7-10-0-5-0--7-10-0-5-0-5-0--7-10-0-5-0--7-10-0-3--xxxx--------------------|

Guitar One repeat.

Guitar Two:
E---------------------------------------------------------------------------|
B---------------------------------------------------------------------------|
G---------------------------------------------------------------------------|
D------------------------------------------------------------------------3~-|
A------------------------------------------------------------------------3~-|
D-7^-0-5-0-7^-0-5-0-7^-0-5-0-7^-0-3--7^-0-5-0-7^-0-5-0-5-0-7^-0-5-0-7^-0-3~-|

Verse:
Guitar's One and Two:
E------------------------------------[-------[-------------------|
B----------------------------------5-[-------[-------------------|
G----------------------------------8-[-------[-------------------|
D---7----7--------7-----------7------[-------[-------------------|
A-0-10-0-10-00-00-10-00-00--0-10-0---[-00-00-[-00-00---00-000----|
D-0----0----00-00----00-00--0----0---[-00-00-[-00-00-0-00-000----|
  .    .    .. ..    .. ..  .    .     .. ..   .. ..   .. ...

First Breakdown
Guitar One:
E------------------------------------------------------[--------------------|
B------------------------------------------------------[--------------------|
G------------------------------------------------------[--------------------|
D------------------------------------------------------[-0------------------|
A-0-0-0--00-00--00-000--0-0-0-----------00-00--00-000--[-0------------------|
D-0-0-0--00-00--00-000--0-0-0--0-0-0-0--00-00--00-000--[-0------------------|  . . .  .. 
 .. ...  . . .  .   .    .. ..  .. ...

Guitar Two:
E-----------------------------------------------[---------------------------|
B-----------------------------------------------[---------------------------|
G-----------------------------------------------[---------------------------|
D-----------------------------------------------[-0-------------------------|
A-0-0-0--00-00--00-000--0-0-0---00-00--00-000---[-0-------------------------|
D-0-0-0--00-00--00-000--0-0-0---00-00--00-000---[-0-------------------------|
  . . .  .. ..  .. ...  . . .   .. ..  .. ...

Bridge:
Guitar One:
Do this four times
E---------------------------------------------------------------------------|
B---------------------------------------------------------------------------|
G---------------------------------------------------------------------------|
D---------------------------------------------------------------------------|
A---------------------------------------------------------------------------|
D-0-0-77777-0-0-77777-0-0-10-10-10-10-10-0-0-5-3-5-3------------------------|

Guitar Two:
First time completely silent. Then follow the first guitar for two measures.
E---------------------------------------------------------------------------|
B---------------------------------------------------------------------------|
G---------------------------------------------------------------------------|
D---------------------------------------------------------------------------|
A---------------------------------------------------------------------------|
D-------------------------10-10-10-10-10-0-0-5-3-5-3------------------------|

Guitar One:
E--------------------------------------------------------------|
B--------------------------------------------------------------|
G--------------------------------------------------------------|
D--------------------------------------------------------------|
A--------------------------------------------------------------|
D-0-0-77777-0-0-77777-0-0-10-10-10-10-10-0-7-5-0-10-7----------|

E------------------------------------------------------------|
B------------------------------------------------------------|
G------------------------------------------------------------|
D------------------------------------------------------------|
A------------------------------------------------------------|
D-0-0-77777-0-0-77777-0-7-5-0-10-7--0-7-5-0-10-7-5-3---------|

Guitar Two:
E-------------------------------------------------------|
B-------------------------------------------------------|
G-------------------------------------------------------|
D-------------------------------------------------------|
A-5-------5---------------------------------------------|
D---77777---77777-10-10-10-10-10-10-10-0-10-7-0-12-7----|

E------------------------------------------------------------------|
B------------------------------------------------------------------|
G------------------------------------------------------------------|
D------------------------------------------------------------------|
A-5-------5--------------------------------------------------------|
D---77777---77777--0-10-7-0-12-7--0-10-7-0-12-10-7-5---------------|

Guitar's One and Two:
Four times
E----------------------------------------------------------------------|
B---------------------5---------5--------------------------------------|
G---------------------8---------8--------------------------------------|
D----------------------------------------------------------------------|
A----------Gt.2-----0---0-----0---0-777-999-55-------------------------|
D-7-10-5-(7-10-5)---0---0-3/7-0---0-777-999-55-------------------------|
                    .   .     .   . ... ... ..

Second breakdown thing
Guitar's One and Two:
Four times
E--------------------------------------------------------------|
B-------5-5-5~-5-5-5-------------------------------------------|
G-------8-8-8^-8-8-8-------------------------------------------|
D--------------------------------------------------------------|
A-0-0-0--------------------------------------------------------|
D-0-0-0--------------------------------------------------------|
  . . .

Build up
Guitar Two:
E----------------|
B--55-55-55------|
G--88-88-88------|
D----------------|
A----------------|
D----------------|

Guitar One:
E--------------------|
B--------------------|
G--------------------|
D--------------------|
A--------------------|
D-00-00-00-00-00-00--|

Big Breakdown:
Guitar's One and Two:
E------------------------------------------[---1stTime----[----------|
B------------------------------------------[--------------[----------|
G------------------------------------------[--------------[----------|
D------------------------------------------[--------------[----------|
A--00-00--00000-00-00--00-000-00-00--00000-[-00-00----12\-[----------|
D--00-00--00000-00-00--00-000-00-00--00000-[-00-00--0-12\-[---pause--|
   .. ..  ..... .. ..  .. ... .. ..  .....   .. ..

Guitar's One and Two:
Let palm mutes ring
E----------------------------------------------------------------|
B----------------------------------------------------------------|
G-----------------------------------------------7*---------------|
D----------------------------------------------------------------|
A-00-00--00000-00-00--00-000-00-00-00000--00-00------------------|
D-11-11--11111-11-11--11-111-11-11-11111--11-11------------------|

Guitar's One and Two:
E---------------------------------------------------------------------------|
B---------------------------------------------------------------------------|
G---------------------------------------------------------------------------|
D---------------------------------------------------------------------------|
A---------------------------------------------------------------------------|
D-00-00-00000-00-00--00-000-00-00-00000--00-00-00-000-----------------------|

Outro Riff:
Guitar's One and Two:
E------------]---------------------------------------------------------------|
B------------]---------------------------------------------------------------|
G----Gt.1----]---------------------------------------------------------------|
D------------]---------------------------------------------------------------|
A------------]---------------------------------------------------------------|
D-7-10-0-5-0-]--7-10-0-5-0--7-10-0-5-0--7-10-0-5-0--7-10-0-3-----------------|

E-----------------------------------------[------------|
B-----------------------------------------[------------|
G-----------------------------------------[----Gt.2----|
D-----------------------------------------[------------|
A-----------------------------------------[------------|
D-7-10-0-5-0--7-10-0-5-0-5-0--7-10-0-5-0--[-7-10-0-5-0-|

Outro:
Guitar One ring out on open until the palm muting chugs.
Guitar Two:
E-------------------------------------------------------|
B-------------------------------------------------------|
G-------------------------------------------------------|
D-------------------------------------------------------|
A-0-0-0---0-0--0-0--0-0-0---00-00-----------------------|
D-0-0-0---0-0--0-0--0-0-0---00-00-----------------------|
                            .. ..

Outro Breakdown:
Guitar's One and Two:
Four times
E----------------------[--------------------|
B----------------------[--------------------|
G----------------------[----lasttime--------|
D----------------------[--------------------|
A-0-0-0--00-00-00-000--[-00-00--00-00-------|
D-0-0-0--00-00-00-000--[-00-00--00-00-------|
  . . .  .. .. .. ...    .. ..  .. ..


Let me know what you thinkkkk.
One of my speakers is blown out so I don't know how accurate the second guitar is.
Comment to let me know:)

-Kim
            
Tabs too difficult? Try these video lessons and learn fast.


comments powered by Disqus
↑ Back to top | Tablatures and chords are parodies/interpretations of the original songs. You may use it for private study, scholarship, research or language learning purposes only